Cifras Web
Quiet Riot

Picking Up The Pieces

Quiet Riot

6 acessos

                                            Wha |

E|----------------------------------|------------|---|--------------|---------------|
B|--------8--8-7------8--8--8-7-----|---3--3-3--2|---|--------8--8-7|------8--8--8-7|
G|--------(b9)-(b9)7------(b9)-(b9)-(b9)7-----|---0--0-0--2|pau|--------(b9)-(b9)7|------(b9)-(b9)-(b9)7|
D|--0-0-0--------0-0--0--0--0-------|---0--0-0--2|se-|--0-0-0-------|-0-0--0--0--0--|
A|----------------------------------|---x--x-x--0|---|--------------|---------------|
E|------------------------------10/-|---3--3-3---|---|--------------|---------------|



E|-------------------|
B|-------------------|
G|------2------------|
D|--3-4--------------|
A|-------------------|
E|-------------------|




E|----------------------2---2-3------|---------------------------|-2---2-3-|
B|----------------------3---3-3------|---------------------------|-3---3-3-|
G|----------------------2---2-0------|-2-------2-----------------|-2---2-0-|
D|--0-0-0-0-0-0-0-0-0---------0------|-2--3-4----0-0-0-0-0-0-0-0-|-------0-|
A|--------------------3-------2------|-0------------------------3|-------2-|
E|----------------------------3-2-3--|---------------------------|-------3-|




E|--3------3-------|--------0--|--3------|-3-------|---|
B|----5------3-0---|2------3---|-----5---|---3-0---|-2-|
G|-4----4--------0-|--2--------|4------4-|-------0-|-2-|
D|-----------------|----2------|---------|---------|-2-|
A|-----------------|-----------|---------|---------|-0-|
E|-----------------|-----------|---------|---------|---|


2x

E|------------3----------------------3-|-------------3-------------|
B|------------3----------------------3-|-------------3-------------|
G|---------2--0----------------------0-|---------2---0-------------|
D|-4---4---2--0----------4---4---2---0-|-4---4---2---0---------2---|
A|-2---2---0--0----------2---2---0---0-|-2---2---0---0---------0---|
E|------------3---0-2-3--------------3-|-------------3---2--3------|


2x

E|------------------------------------------|
B|-------12---10-------12---12---10---------|
G|-------12---11-------12---12---11---------|
D|--0-0----------0-0-----------------12--14-|
A|------------------------------------------|
E|------------------------------------------|


Play this again


     2x                   solo

E|----------------|17b-17-16-15-14---------|-----------|17-17-17-17-17-17-17|
B|---------15-----|----------------17-15-14|-14-15--17b|--------------------|
G|-7/11/14--------|------------------------|-----------|--------------------|
D|----------------|------------------------|-----------|--------------------|
A|----------------|------------------------|-----------|--------------------|
E|----------------|------------------------|-----------|--------------------|



E|---------------17-|-15-14----14------------------------------------|
B|--------15b-------|-------17----15-14----14------------------------|
G|------------------|-------------------16----16-14----14------------|
D|------------------|-------------------------------16----16-14----14|
A|------------------|-------------------------------------------16---|
E|------------------|------------------------------------------------|





E|---------------------------|------15b---17b----15b--15b-|
B|-------------------------14|----------------------------|
G|-------------16-16-14-16---|------12b---14b----12b--12b-|
D|----14-16-14---------------|----------------------------|
A|-16------------------------|----------------------------|
E|---------------------------|----------------------------|







2x

E|------------3----------------------3-|-------------3-------------|
B|------------3----------------------3-|-------------3-------------|
G|---------2--0----------------------0-|---------2---0-------------|
D|-4---4---2--0----------4---4---2---0-|-4---4---2---0---------2---|
A|-2---2---0--0----------2---2---0---0-|-2---2---0---0---------0---|
E|------------3---0-2-3--------------3-|-------------3---2--3------|


Then a after playing this 2 you pick slide



E|------------3----------------------3-|-------------3-------------|
B|------------3----------------------3-|-------------3-------------|
G|---------2--0----------------------0-|---------2---0-------------|
D|-4---4---2--0----------4---4---2---0-|-4---4---2---0---------2---|
A|-2---2---0--0----------2---2---0---0-|-2---2---0---0---------0---|
E|------------3---0-2-3--------------3-|-------------3---2--3------|



E|----------------------------------|------------|
B|--------8--8-7------8--8--8-7-----|---3--3-3--2|
G|--------(b9)-(b9)7------(b9)-(b9)-(b9)7-----|---0--0-0--2|
D|--0-0-0--------0-0--0--0--0-------|---0--0-0--2|
A|----------------------------------|---x--x-x--0|
E|------------------------------10/-|---3--3-3---|



E|------------------------------------------|
B|-------12---10-------12---12---10---------|
G|-------12---11-------12---12---11---------|
D|--0-0----------0-0-----------------12--14-|
A|------------------------------------------|
E|------------------------------------------|


And play how ever many times

TOP cifras de Quiet Riot

  1. Thunderbird
  2. Stay With Me Tonight
  3. Winners Take All
  4. Afterglow
  5. Bang Your Head
  6. Battle Axe
  7. Come On Feel The Noise
  8. Metal Health Intro
  9. The Wild And The Young
  10. Cum On Feel The Noize

Pela Web