Cifras Web
Quiet Riot

Winners Take All

Quiet Riot

16 acessos

The price is high, when you keep the score

-----------------------------------------|
-----------------------------------------|
--5------7------9------------------------|
--5------7------9------------------------|
--3------5------7------------------------|
-----------------------------------------|


Take your souls, and your goals....

-----------------------------------------|
-----------------------------------------|
-----------------------------------------|
--9---7---5---------------------------9--|
--7---5---3-----9---7---5-----7---9---7--|
----------------7---5---3-----5---7------|


Together we stand...

-----------------------------------------|
-----------------------------------------|
-5---4---9---7---------------------------|
-5---4---9---7---------------------------|
-3---2---7---5---------------------------|
-----------------------------------------|


Co?s were winners, and winners, take all

--------------------------------------|
--------------------------------------|
-5---3---9----------------------------|
-5---3---9----------------------------|
-3---1---7----------------------------|
--------------------------------------|

Play those 2 previous riffs two times. (Listen to the song)
After this comes verse 2.

Down the road...

-----------------------------------------|
-----------------------------------------|
--5------7------9------------------------|
--5------7------9------------------------|
--3------5------7------------------------|
-----------------------------------------|


But we know...

------------------------------------------|
------------------------------------------|
------------------------------------------|
--9---7---5---------------------------9---|
--7---5---3-----9---7---5-----7---9---7---|
----------------7---5---3-----5---7-------|


Together we stand...

-----------------------------------------|
-----------------------------------------|
-5---4---9---7---------------------------|
-5---4---9---7---------------------------|
-3---2---7---5---------------------------|
-----------------------------------------|


Co?s were winners, and winners, take all

--------------------------------------|
--------------------------------------|
-5---3---9----------------------------|
-5---3---9----------------------------|
-3---1---7----------------------------|
--------------------------------------|

Repeat these previous riffs two times.(again)

                          Solo At 3:00

--------------------------------------------------------------|
--------------------------------------------------------------|
--------------------------------------------------------------|
-17/--16--14--14--13--12--13--15/--17--19--21/--18--20--22/---|
--------------------------------------------------------------|
--------------------------------------------------------------|



--------------------------------------------------------------|
--------------------------------------------------------------|
-19/--18--17--16--17--18--19/--21--19--19--21--19--18--17-----|
--------------------------------------------------------------|
--------------------------------------------------------------|
--------------------------------------------------------------|



--------------------------------------------------------------|
--------------------------------------------------------------|
-19--17--15--17--17--19--17--19--17/--------------------------|
--------------------------------------------------------------|
--------------------------------------17--15--14--15--17/-----|
--------------------------------------------------------------|



-----------------------------------------------------------|
-------------19--18--17--14--15--16--17--19--20--21/-------|
-----------------------------------------------------------|
-----------------------------------------------------------|
-14--15--12------------------------------------------------|
-----------------------------------------------------------|


The price is high, when you keep the score

-----------------------------------------|
-----------------------------------------|
--5------7------9------------------------|
--5------7------9------------------------|
--3------5------7------------------------|
-----------------------------------------|


Take your souls, and your goals...

---------------------------------------------|
---------------------------------------------|
------------------------------------------7--|
--9--7--5-5-5-5-5-5-5-5-------------------7--|
--7--5--3-3-3-3-3-3-3-3--7-7-7-7-7-7-7-7--5--|
-------------------------5-5-5-5-5-5-5-5-----|



Together we stand...

-----------------------------------------|
-----------------------------------------|
-5---4---9---7---------------------------|
-5---4---9---7---------------------------|
-3---2---7---5---------------------------|
-----------------------------------------|


Co?s were winners, and winners, take all

--------------------------------------|
--------------------------------------|
-5---3---9----------------------------|
-5---3---9----------------------------|
-3---1---7----------------------------|
--------------------------------------|

Repeat these 2 again two times

                Outro Solo at 4:17

--------------------------------------------------------|
--------------------------------------------------------|
--------------------------------------------------------|
-17/--16--14--14--13--12--13--15/--17--19--21/----------|
--------------------------------------------------------|
--------------------------------------------------------|


--------------------------------------------------------|
--------------------------------------------------------|
--------------------------------------------------------|
-19--18--17--18--17--16--17--16--15--16--15--16--14/----|
--------------------------------------------------------|
--------------------------------------------------------|

TOP cifras de Quiet Riot

  1. Thunderbird
  2. Stay With Me Tonight
  3. Winners Take All
  4. Afterglow
  5. Bang Your Head
  6. Battle Axe
  7. Come On Feel The Noise
  8. Metal Health Intro
  9. The Wild And The Young
  10. Cum On Feel The Noize

Pela Web