Cifras Web
Rebelution

Day by day

Rebelution

10 acessos

Intro:

|-------------------------------------------------3----------------------------------------------
|-------------------------------------------------3----------------------------------------------
|-------------------------------------------------4-----------------9--9--x--x--9--9--x--x--9----
|-------7-----------------------------------------5-----------------9--9--x--x--9--9--x--x--9----
|-------7--------------5--------------------------5-----------------7--7--x--x--7--7--x--x--7----
|----0--5-----5--7--8--------8--7--8-----7--5--3--3-----3--5--7--0-------------------------------




|-------------------------------------------------3-------------------------------------------
|-------------------------------------------------3-------------------------------------------
|-------------------------------------------------4-------------------------------------------
|-------7-----------------------------------------5-------------------------------------------
|-------7--------------5--------------------------5--------------------7h--8p--7--5-----------
|----0--5-----5--7--8--------8--7--8-----7--5--3--3-----3--5--7--0-------------------8--7--5--


Yeah
Yeayeah

A6/F#
Next thing i knew we were in deep
A6/F#
Hold on to me, cause babe i´m bout to leave
E
She said it never felt so right
C#5
As the time went by
A6/F#
And i was off in the night
A6/F#
She said i don´t cry, tonight i cried twice
A6/F#
The thought of you not by my side
E
And i find you the on the emotional type
C#5
Hold on to me, we can hold on for life
A6/F#
Tell me how you feel when i say this,
A6/F#
Our destination is place-less
E
I never understood what it meant when
C#5
I said the three words that some people dread
A6/F#
That´s about as real as it gets
A6/F#
I never hold back with my love and intent
E
Finally figured out what it meant
C#5
Now there´s a spark in my heart times ten

A6/F#
Everyday
                          A6/F#
Eight days a week was the song that i´d play
                          E
Eight times for me and eight times for the sake
                          C#5
Eight times for love and eight times for the way
                          A6/F#
That i can remember those days
                          A6/F#
You and every minute wasn´t all so strange
                                    E
See you in the spring when the patience pays
                       C#5                     A6/F#
I´m strugglin´ but hustlin´ and lovin´ it, always.



|-------------------------------------------------3----------------------------------------------
|-------------------------------------------------3----------------------------------------------
|-------------------------------------------------4-----------------9--9--x--x--9--9--x--x--9----
|-------7-----------------------------------------5-----------------9--9--x--x--9--9--x--x--9----
|-------7--------------5--------------------------5-----------------7--7--x--x--7--7--x--x--7----
|----0--5-----5--7--8--------8--7--8-----7--5--3--3-----3--5--7--0-------------------------------




|-------------------------------------------------3-------------------------------------------
|-------------------------------------------------3-------------------------------------------
|-------------------------------------------------4-------------------------------------------
|-------7-----------------------------------------5-------------------------------------------
|-------7--------------5--------------------------5--------------------7h--8p--7--5-----------
|----0--5-----5--7--8--------8--7--8-----7--5--3--3-----3--5--7--0-------------------8--7--5--





Yeah yeah

 A6/F#
I wrote to her eighty-five times
 A6/F#
Sometimes for her, but sometimes for my
E
Simple collection of lies
C#5
Sometimes to find the way up in a rhyme
 A6/F#
I woke up one morning to find
 A6/F#
It was her first name on a billboard sign
E
I smiled and said damn what a trip
C#5
I was just yesterday i had a kiss for her lips
 A6/F#
Usually i don´t make much of this
 A6/F#
A sign´s a sign it doesn´t change it a bit
E
I choose to stay calm in my sleep
C#5
Seeing the prize on april nineteenth
 A6/F#
That was then, i was down to a week
 A6/F#
Longest seven days of my life so to speak
E
I sip up my tea so sweet
C#5
And my head thirsts the girl i´ve been dying to see

 A6/F#
So, everyday
                           A6/F#
Eight days a week was the song that i´d play
                          E
Eight times for me and eight times for the sake
                          C#5
Eight times for love and eight times for the way
                           A6/F#
That i can remember those days
                            A6/F#
You and every minute wasn´t all so strange
                            R
See you in the spring when the patience pays
                   C#5                         A6/F#
I´m strugglin´ but hustlin´ and lovin´ it, always.




|-------------------------------------------------3-------------------------------------------
|-------------------------------------------------3-------------------------------------------
|-------------------------------------------------4-------------------------------------------
|-------7-----------------------------------------5-------------------------------------------
|-------7--------------5--------------------------5--------------------7h--8p--7--5-----------
|----0--5-----5--7--8--------8--7--8-----7--5--3--3-----3--5--7--0-------------------8--7--5--


|-------------------------------------------------3----------------------------------------------
|-------------------------------------------------3----------------------------------------------
|-------------------------------------------------4-----------------9--9--x--x--9--9--x--x--9----
|-------7-----------------------------------------5-----------------9--9--x--x--9--9--x--x--9----
|-------7--------------5--------------------------5-----------------7--7--x--x--7--7--x--x--7----
|----0--5-----5--7--8--------8--7--8-----7--5--3--3-----3--5--7--0-------------------------------

TOP cifras de Rebelution

  1. Meant To Be (feat. Jacob Hemphill Of Soja)
  2. Heart Like a Lion
  3. Safe And Sound
  4. Attention Span
  5. Change The System
  6. Feeling Alright Intro
  7. Dubzilla
  8. Suffering
  9. Meant To Be
  10. Bump

Pela Web