Cifras Web
Rebelution

Meant To Be (feat. Jacob Hemphill Of Soja)

Rebelution

50 acessos

Inicio:
G|------------------------------------------------|
B|------------------------------------------------|
A|--7-7-7-7----------------------7-7-7-7----------|
E|----------7-7-7-8--7-8-7-8--7----------7-7-7-8--|  

Parte 1:
G|------------------------------------------------|
B|------------------------------------------------|
A|--7----------------------7-7-7-7----------------|
E|-------7---8--7-8-7-8-7---------7-7-7-8---------| 

Parte 2:
G|------------------------------------------------|
B|------------------------------------------------|
A|------------------------------------------------|
E|--3--3-7-8--8---------0-3-5--5-3-5--------------|

TOP cifras de Rebelution

  1. Meant To Be (feat. Jacob Hemphill Of Soja)
  2. Heart Like a Lion
  3. Safe And Sound
  4. Attention Span
  5. Change The System
  6. Feeling Alright Intro
  7. Dubzilla
  8. Suffering
  9. Meant To Be
  10. Bump

Pela Web