Cifras Web
Richard Hawley

Just Like The Rain

Richard Hawley

3 acessos

Album: Coles Corner
Tuning: Standard
Tabbed By: Bobby

Chords:

a   -222--|
e   --122-|

f#m 222442
d   232---

cappo on 5th fret

This song has a lead part and a rhythm part but if you play it like this it should sound 
with one guitar.

Intro/Verse


e --------------------------------|
B ----2-2-2-2-2-2-----------------|
G ----2-2-2-2-2-2-----1-1-1-1-1-1-|  x2
D ----2-2-2-2-2-2-2---2-2-2-2-2-2-|
A 0-2---------------4-2-2-2-2-2-2-|
E --------------------------------|



e -----------------------------------|
B ----2-2-2-2-2-2--------------------|
G ----2-2-2-2-2-2-----1-1-1-1-1-1----|  x2
D ----2-2-2-2-2-2-0---2-2-2-2-2-2----|
A 0-----------------4-2-2-2-2-2-2----|
E --2--------------------------------|


e       a                  e
Walking silent through the snow
         a              e
Drifting softly to your door,
           a           e
I'm coming home,
           a           e
I'm coming home.

          a                  e
I feel so strange, I feel so weak
              a              e
I've walked a world of empty streets
          a            e
In search alone,
              a           e
I've searched alone.

f#m                    a
But you're still in my mind
f#m                a
You're still in my mind
    d                e
And here's where the sound
      d              e
Of my tears hits the ground
              a           e
Just like the rain
              a           e
Just like the rain.

        a                e
When we walked along the shore
            a              e
My darkness shaded, all we saw
        a             e
I was unkind, I was unkind

          a                  e
I feel so strange, I feel so weak
              a              e
I've walked a world of empty streets
          a              e
In search alone,
               a         e
I've searched alone.

But you're still in my mind
You're still in my mind
And here's where the sound
Of my tears hits the ground
Just like the rain
Just like the rain.

(solo, also lead part on intro/verse)


e ----------------------------------------------------------------------|
B ----------------------------------------------------------------------|
G ----------------------------------------------------------------------|
D ----------------------------------------------------------------------|
A -0-2-4----7-4-2----0-2-4----7-4-2----0--------5-4-2----0---0----5-4-2-|
E ---------------------------------------2-0---------------2------------|


But you're still in my mind
You're still in my mind
And here's where the sound
Of my tears hits the ground
Just like the rain
Just like the rain
Just like the rain
Just like the rain.    (end on a)

This is my first tab, hope you like it!

Top cifras de Richard Hawley

  1. Ocean
  2. Just Like The Rain
  3. Datura

Pela Web