Cifras Web
Ronaldo Arco

Súplica

Ronaldo Arco

72 acessos

Introd.:  Em  D  C7+ ( C D )  |
          Em  D  C7+           |2X  Bsus4 B

   Em        D      C7+ (C D) Em       D      C7+


e|-------2-3-2---------------------2-3-2------5/7-
B|-----5--------3---3/5----------5--------3-------
G|----------------4-------------------------4-----
D|------------------------------------------------
A|------------------------------------------------
E|------------------------------------------------


Em         D  C         G/B
Ouve, Senhor, a minha prece.
Am        G/B       Dsus4 D
Eu quero aqui Te pedir
Em        D       C        G/B
Um Teu favor, alguém que padece.
Am        G/B        C           D D#º
Que não merece, mas quer Teu perdão.


Em         D/F#     G      C
Pois me perdoa, perdoa Senhor
   G/B  Am      Dsus4 D
Te peço com devoção.
Em        D/F#     G         C
Deste Tua vida morrendo na cruz;
    G/B      Am        D (Em D C7+) Intro
Eu quero ser Teu, meu Jesus.

 Em            D        A/C#   A
Quantas vezes  eu Te deixei
D           D/F#       G   D/F#
Não querendo Te encontrar!
 Em           D       A/C#  A       Bsus4 B
Quantas vezes eu Te magoei,  sem pensar.
 Em           D          A/C# A
Quantas vezes me deste a mão
D               D/F#  G   D/F#
Mas eu não quis aceitar!
 Em           D       A/C#  A
Quantas vezes em meu viver.
          Bsus4 B
Te fiz chorar.

Em         D/F#     G      C
Pois me perdoa, perdoa Senhor
   G/B  Am      Dsus4 D
Te peço com devoção.
Em        D/F#     G         C
Deste Tua vida morrendo na cruz;
    G/B      Am        D  Em D C7+ Csus4 C
Eu quero ser Teu, meu Jesus.

Fm         Eb/G     Ab    Db
Pois me perdoa, perdoa Senhor
   Ab/C Bbm     Dbsus4 Db
Te peço com devoção.
Fm        Eb/G     Ab       Db
Deste Tua vida morrendo na cruz;
   Ab/C      Bbm      Eb Fm Eb C#7+
Eu quero ser Teu, meu Jesus.

   Fm        Eb     C#7+ (C# D#) Fm        Eb     C#7+


e|-------3-4-3------------------------3-4-3------6/8-
B|-----6--------4---4/6-------------6--------4-------
G|----------------5----------------------------5-----
D|---------------------------------------------------
A|---------------------------------------------------
E|---------------------------------------------------

/ = slide (o dedo escorrega de uma casa até a outra)

Top cifras de Ronaldo Arco

  1. Súplica
  2. Calvário
  3. Te Glorificar
  4. Nos Teus Olhos
  5. Choro Dos Santos
  6. O Farol
  7. Prossiga
  8. Ele Vai Te Alcançar
  9. A Bíblia

Pela Web