Cifras Web
Score Hero

Nunca Deixou de Ser

Score Hero

10 acessos

Intro 2x: A7M E F#M D D9 
Solo 1:

E|---------------------------------|
B|-2---2-3-2-------2---------------|
G|---2-------4-2-4---4-2-1-2-4-2-1-|
D|---------------------------------|
A|---------------------------------|
E|---------------------------------|


Solo 2:

E|---2---2-2-2-2-2-5---5-5-5-5-5-7-5-7-5-7-5-7-5-7-5-9-7-5-4-|
B|-2---------------------------------------------------------|
G|-----------------------------------------------------------|
D|-----------------------------------------------------------|
A|-----------------------------------------------------------|
E|-----------------------------------------------------------|



E|--2---2-2-2-2-2-5---7-4-2-0-|
B|----------------------------|
G|----------------------------|
D|----------------------------|
A|----------------------------|
E|----------------------------|


A7M                       E
Eu nâo sei o que aconteceu.
F#M                 D         D9
Quando voce se foi, meu mundo desapareceu.
A7M                     E                       F#M                D  D9
Tava tudo dando certo, com voce aqui bem perto, somente voce e eu.
A7M                  E   F#M                   D        D9
Porque foi me largar..., se o que eu fiz foi te amar, adora me fazer chorar
A7M                  E                    F#M                      D  D9
Você é tudo pra mim, nunca deixou de ser, não tinha que ficar assim.

( A7M  E  F#M  D  D9 )

A7M                       E
Eu nâo sei o que aconteceu.
F#M                 D         D9
Quando voce se foi, meu mundo desapareceu.
A7M                     E                       F#M                D  D9
Tava tudo dando certo, com voce aqui bem perto, somente voce e eu.
A7M                  E   F#M                   D        D9
Porque foi me largar..., se o que eu fiz foi te amar, adora me fazer chorar
A7M                  E                    F#M                      D  D9
Você é tudo pra mim, nunca deixou de ser, não tinha que ficar assim.

Refrão 2x:
A7M          E           F#M             D               D9
Volta pra mim...! Ainda não acabou,não pode terminar assim.
A7M         E        F#M                 D             D9
Diga que sim...! Pra tudo se realizar , só falta um sim.
F#M   D              D9
      Só falta um sim. 

(Solo 2)

(Solo 1)

TOP cifras de Score Hero

  1. Naruto Cenas Tristes
  2. Espero Por Você
  3. Vale a Pena Tentar
  4. Preste Atenção
  5. Tanta Coisa Chata
  6. Manhã de Sol
  7. Open Heart
  8. Sol
  9. Nunca Deixou de Ser
  10. A unica

Pela Web