Cifras Web
Score Hero

Sol

Score Hero

11 acessos

Intro: E  G  C  Am
Riff:

    E   G   C   Am
E|---|---|---|---|
B|---|---|---|---|
G|--7|--7|--7|---|
D|-5-|-5-|-5-|-5-|
A|---|---|---|--7|
E|---|---|---|---|


E
Eu sonhei que estava desaparecendo,
G
Você estava tão assustada.
C
Mas ninguem podia ouvir,
Am
Pois niguem mais se importava.
E
Depois do meu sonho,
G
Eu acordei com esse medo,
C
O que eu estou deixando
Am
Quando eu morrer?

Refrão 2x:
E                             
E o sol ira se por pra você,     
G                                
O sol ira se por pra você.     
 C                                
E a sombra do dia,               
Am                               
Irá envolver o mundo em cinzas.

E
Há verdade em suas mentiras
G
E duvidas em sua fé,
C
Eu não serei...
Am
A transformar tudo isso em mentiras.

Refrão:
E
Quando a minha hora chegar
G
E quando você se sentir vazia,
C
Mantenha-me em sua memória,
Am
E esqueça todo o resto!
Solo:
E|------|------|--------7-5-3-2-|
B|-8-7-5|-8-7-5|-8-7-5----------|
G|------|------|----------------|
D|------|------|----------------|
A|------|------|----------------|
E|------|------|----------------

Parte 2:
E|------|------|--------7-5-3-5-7-5-3-||-7-5-7-5-||-7-5-7-5-3-5-3-0-|
B|-8-7-5|-8-7-5|-8-7-5----------------||---------||-----------------|
G|------|------|----------------------||---------||-----------------|
D|------|------|----------------------||---------||-----------------|
A|------|------|----------------------||---------||-----------------|
E|------|------|----------------------||---------||-----------------|

TOP cifras de Score Hero

  1. Naruto Cenas Tristes
  2. Espero Por Você
  3. Vale a Pena Tentar
  4. Preste Atenção
  5. Tanta Coisa Chata
  6. Manhã de Sol
  7. Open Heart
  8. Sol
  9. Nunca Deixou de Ser
  10. A unica

Pela Web