Cifras Web
Sem Problema

Melhor Garota Que Já Tive

Sem Problema

5 acessos

Intro- Guitarra Solo


E|------------9---------------12-------------6-----|
B|------11-------11-----14-------14-------8----8---|
G|---------10--------------13---------------7------|
D|---11---------------14----------------8----------|
A|-0----------------0-----------------0------------|
E|-------------------------------------------------|



E|-------2------2~~--------------------------------|
B|-----3---3----3~~--------------------------------|
G|---2----------2~~--------------------------------|
D|-4------------4~~--------------------------------|
A|-------------------------------------------------|
E|-------------------------------------------------|


C
Vivo sempre Esperando
Dm
Alguém que me mostre
Em
O que é a a felicidade
F                      G
E se ela existe de verdade

C
Em um mundo de guerras e conflitos
Dm
Há também a paz
Em
Eu quero alguém encontrar
F                      G
Para da paz poder desfrutar

C
Te encontrei por acaso
Dm
Em uma bela tarde de sábado
Em
Onde o tempo estava claro
F               G
Assim como você

Am        Em      F
A partir desse dia
Am        Em      F
Toda vez que vejo
Am      Em     F
Seu olhar...
Am      Em      F       Em
Vou para o paraíso...

F
O seu olhar brilha como o sol...
F
Como o sol...
G
Queria ter você aqui
G
Junto a mim...

C
Garota de alguma forma
Dm
Você está em minha mente
Em
Agora quando vou pegar sua mão
F                 G
E te abraçar, lembrarei...

C
Da nossa primeira troca
Dm                      (Riff 1)
De olhares, e principalmente
Em
Do nosso primeiro beijo
F                     G      Em   Am
Você é a melhor garota que já tive

(Riff 1)

E|------------------------7-9b10r9------7-6-------------|
B|-----------------7-10-9-------------6------9b11r9\5---|
G|---6-8b10r8--7-9------------------6-------------------|
D|-7----------------------------------------------------|
A|------------------------------------------------------|
E|------------------------------------------------------|


F
O seu olhar brilha como o sol...
F
Como o sol...
G
Queria ter você aqui
G
Junto a mim...

F
O seu olhar brilha como o sol...
F
Como o sol...
G
Queria ter você aqui
G
Junto a mim...

Solo:
Base : C E G


E|-15p12----------9-10p7-----------12-15p12----------12-----|
B|-------10-9-10----------10-9-10----------10-9-10----------|
G|----------------------------------------------------------|
D|----------------------------------------------------------|
A|----------------------------------------------------------|
E|----------------------------------------------------------|





E|-15p12----------12-15p12----------12-15p12----------18----|
B|-------11-10-11----------12-15-14----------10-12-13-------|
G|----------------------------------------------------------|
D|----------------------------------------------------------|
A|----------------------------------------------------------|
E|----------------------------------------------------------|





E|-19p17----------19-20p17----19-19-19-17-17-17-15-15-15----|
B|-------18-17-18----------17-------------------------------|
G|----------------------------------------------------------|
D|----------------------------------------------------------|
A|----------------------------------------------------------|
E|----------------------------------------------------------|




E|-14-14-14-17-17-17-18-18-18-------------------------------|
B|-----------------------------19b20-18b19-17b18-16b17-15~\-|
G|----------------------------------------------------------|
D|----------------------------------------------------------|
A|----------------------------------------------------------|
E|----------------------------------------------------------|


C
Quando estou com você
Dm
Me sinto seguro,feliz
Em
E posso te dizer com
F          G    F  C
Toda as palavras

F         C         G        A       Am
Você é a melhor garota que já tive...
ohhhh
F         C         G        A       Am
Você é a melhor garota que já tive...

Solo Final

(parte 1) Base: E C


E|-10-11-13-11-10-11-7---7-----------------------------------|
B|--------------------14---13-12-10-9-10-10-7---7------------|
G|--------------------------------------------11---11-7-10-7-|
D|-----------------------------------------------------------|
A|-----------------------------------------------------------|
E|-----------------------------------------------------------|





E|----------------------------17---------------------17------|
B|-----------------------17-18--20---20-18-17-18p17----17----|
G|12-14-----------16-17-19--------------------19-------------|
D|------16-17-19---------------------------------------------|
A|-----------------------------------------------------------|
E|-----------------------------------------------------------|





E|-----------------------------------------~-----------------|
B|-17-19b21~~~~~~--------------------------------------------|
G|-----------------------------------------------------------|
D|-----------------------------------------------------------|
A|-----------------------------------------------------------|
E|-----------------------------------------------------------|


(parte 2) Base F# G



E|-----------------------------------------------------------|
B|-----------------------------------------------------------|
G|-15b17--15b17--15b17--15b17--b16-b16-b16~~-----------------|
D|-----------------------------------------------------------|
A|-----------------------------------------------------------|
E|-----------------------------------------------------------|



E|-----------------------------------------------------------|
B|-------14-------14-------14-------14-------17--------------|
G|-16b18----16b18----16b18----16b18----20b22-----------------|
D|-----------------------------------------------------------|
A|-----------------------------------------------------------|
E|-----------------------------------------------------------|





E|-------16--------------------------------------------------|
B|-19b20----19b20~~~-----------------------------------------|
G|-----------------------------------------------------------|
D|-----------------------------------------------------------|
A|-----------------------------------------------------------|
E|-----------------------------------------------------------|


(parte 3) Base E C


E|------------------------------------|
B|------------------------------------|
G|---------------------------------10-|
D|----------------10---10-14-12-14----|
A|----10-12-10-12---12----------------|
E|-12---------------------------------|






E|----------------------------------16----12-15p12-|
B|----------------14----14-17-14-17----15----------|
G|----15-17-15-17----15----------------------------|
D|-17----------------------------------------------|
A|-------------------------------------------------|
E|-------------------------------------------------|





E|--------------------------|
B|-10-7-----8--10b12--------|
G|-------12----------12-10\-|
D|--------------------------|
A|--------------------------|
E|--------------------------|


(parte 4)
Base F# G


E|---------------------------------------------------|
B|-------------------------10-10-------12-12-10-14---|
G|-15-15-------15-15-13-15-------15-13---------------|
D|-------17-14---------------------------------------|
A|---------------------------------------------------|
E|---------------------------------------------------|





E|-12-12-------15-15-12--15-14-12h15p12--------------|
B|-------15-12--------------------------15-----------|
G|---------------------------------------------------|
D|---------------------------------------------------|
A|---------------------------------------------------|
E|---------------------------------------------------|




E|----------12----------------10---------------------|
B|-15b16-16----15p12-------10----15p12---------------|
G|-------------------12b14---------------------------|
D|---------------------------------------------------|
A|---------------------------------------------------|
E|---------------------------------------------------|




E|-15b16r15~-10h13p11----10----------12--------------|
B|--------------------14----12b15-15----15p12--------|
G|---------------------------------------------------|
D|---------------------------------------------------|
A|---------------------------------------------------|
E|---------------------------------------------------|




E|---------------------------------------------------|
B|-------------------13------------------------------|
G|-16b18r16p14-10b12----12b14p12----15p12----9~\-----|
D|-------------------------------15-------10---------|
A|---------------------------------------------------|
E|---------------------------------------------------|

TOP cifras de Sem Problema

  1. Você Será Minha
  2. Guerra Na Vida
  3. Melhor Garota Que Já Tive
  4. Mudança Agora
  5. Pela Manhã Esteja Aqui

Pela Web