Cifras Web
Sem Problema

Você Será Minha

Sem Problema

7 acessos

Intro- Guitarra 1

   Am        F         E7        C#m       D4
E|-------0--------1----------0---------4---------3------|
B|-----1--------1----------3---------5---------3--------|
G|---2--------2----------1---------6---------2----------|
D|-2--------3----------2---------6---------0------------|
A|------------------------------------------------------|
E|------------------------------------------------------|


Intro- Guitarra 2

    Am     F       E7      C#m     D4    D     Dm
E|-0------1-------0--------4------3-----2------1--------|
B|-1------1-------3--------5------3-----3------3--------|
G|-2------2-------1--------6------2-----2------2--------|
D|-2------3-------2--------6------0-----0------0--------|
A|-0------3-------2--------4----------------------------|
E|--------1-------0-------------------------------------|



D
O seu sorriso me leva
C
Para um lugar especial
Em
Onde tudo é perfeito
G              Em
Assim como você

D
Mas não tenho a coragem
C
De falar com ti
Em
De te conhecer melhor
G               Em
Mas esse dia chegará

Bm
Quando estou olhando pra você
Am
Não sei o que sinto
Bm             Am
Não sei o que faço

(Refrão)
Bm
Você será minha
Am
Você será minha
Bm
Um dia...

D
O destino talvez
C
Me ajude,mas
Em
Para acontecer eu tenho
G               Em
Que chegar em ti

Bm
De repente em um dia
Am
vou falar com você
Bm
E assim passei a
Am
Te amar mais ainda

(Refrão)
Bm
Você será minha
Am
Você será minha
Bm
Um dia...

D
Mina eu penso em
C
você todo hora
Em
Com certeza, você está
G                  Em
No meu coração agora

Bm
Um dia nós ficamos
Am
E o nosso sentimento
Bm
É para sempre
Am                    Em
Independente da situação

(Refrão)
Bm
Você será minha
Am
Você será minha
Bm
Um dia...

Solo: E Em G

SOLO 1-

E|---------5-7-5b7------------------------------------------|
B|-5-5-5-7------------------7 10-12-10-9-7-5-4h5p4----------|
G|----------------------7-9---------------------------------|
D|------------------7-9-------------------------------------|
A|----------------------------------------------------------|
E|----------------------------------------------------------|




E|-12\9-9-8-10-------7-10---------------------6/8-8-8\6-----|
B|-------------10-12--------6-8---------------5/7-7-7\5-----|
G|------------------------8-----8-7-----6-8~~---------------|
D|----------------------------------6-8---------------------|
A|----------------------------------------------------------|
E|----------------------------------------------------------|


BASE DO SOLO- G E

SOLO 2-

E|---------------16-------------------16-------------15b17~-|
B|-14~~---16b18------14b16r14~~-b16------13b14-13~~---------|
G|----------------------------------------------------------|
D|----------------------------------------------------------|
A|----------------------------------------------------------|
E|----------------------------------------------------------|




E|-----------------------15-17----15-17p15\13-15------------|
B|-b18r17b18~~--15-17-18-------18---------------------------|
G|----------------------------------------------------------|
D|----------------------------------------------------------|
A|----------------------------------------------------------|
E|----------------------------------------------------------|





E|--9b11--7----------------------------15-------------------|
B|------------12b14r12--11-13-11----13-----13--13~~---------|
G|-------------------------------12-------------------------|
D|----------------------------------------------------------|
A|----------------------------------------------------------|
E|----------------------------------------------------------|





E|-------17-----------------14b16-17~--18-14p13-12----------|
B|----15----15--15~~-----15---------------------------------|
G|-17-----------------16------------------------------------|
D|----------------------------------------------------------|
A|----------------------------------------------------------|
E|----------------------------------------------------------|




E|-12-12h13p12----10--------15------------------------------|
B|-------------14----15b17------13b15r13~--11~~-------------|
G|----------------------------------------------------------|
D|----------------------------------------------------------|
A|----------------------------------------------------------|
E|----------------------------------------------------------|

TOP cifras de Sem Problema

  1. Você Será Minha
  2. Guerra Na Vida
  3. Melhor Garota Que Já Tive
  4. Mudança Agora
  5. Pela Manhã Esteja Aqui

Pela Web