Cifras Web
Sérgio Pererê

Estrela Maior

Sérgio Pererê

6 acessos

Introdução - Arranjo do violão:

E|----0---0-----0---0---0-----0---0---0-----0---0---0-----0---0--------
A|---------------------------------------------------------------------
D|---------------------------------------------------------------------
G|--------------------9---8---6-------------------7---8---6------------
B|------9---9---7-----9---7---5-----9---9---7-----7---7---5------------ 
e|------9---9---7-------------------9---9---7--------------------------



E|----0---0-----0---0---0-----0---0---0-----0---0---0-----0--------0---
A|-----------------------------------------------------------------2---
D|-----------------------------------------------------------------2---
G|--------------------7---6---8-----8---6---8-----8---8---6--------1---
B|------9---9---7-----7---5---7-----7---5---7-----7---7---5--------0---
e|------9---9---7--------------------------------------------------0---



Solo introdução:
Parte 1

E|------------------------------
A|------------------------------
D|------------------------------
G|------------------------------
B|---12--------12---------------
e|--------14--------16---14-----


Parte 2

E|------------------------------
A|------------------------------
D|------------------------------
G|------------------------------
B|---12--------12---------------
e|--------14--------17---14-----


Parte 3

E|------------------------------
A|------------------------------
D|------------------------------
G|------------------------------
B|---12--------12---------------
e|--------14--------14---14-----


Parte 4

B|--------------------------------------------------------------------------
e|---14---14---14---12---11-----11---12\11---9------------------------------



B|--------------------------------------------------------------------------
e|---14---14---14---12---11-----11---12\11---9------------------------------



B|--------------------------------------------------------------------------
e|---14---14---14---12---11-----9---11-----9---11-----9---11---12------12---




Solo: A - B - A - B - B - A - C - C
      C - A - B - A - A - B - A - A - D




E		    A
Para manter vivo esse mar, 
  B7           E
Não economizo suor.
      A		      F#m7
Mas espere que eu vá chorar,
      B7                   E
Minha alegria é estrela maior.
  A                     F#m7
O povo que vive neste lugar,
B7		   E
Só conhece água boa.
  A                      F#m7
E quem vier trazendo uma água,
   B7		      E	
Vá embora e leve sua canoa.
 A                     F#m7
Quem vier trazendo uma água,
   B7		     E	
Vá embora e leve sua canoa.

TOP cifras de Sérgio Pererê

  1. Costura da Vida
  2. Estrela Das Estrelas
  3. Contador de Histórias
  4. Na Fé
  5. Terra e Lua
  6. Chuva do Mistério
  7. Estrela Maior
  8. Aroeira
  9. Mais Samba e Menos Lágrimas
  10. Ondé Qué

Pela Web