Cifras Web
Silence 4

A little respect

Silence 4

5 acessos

A              A              A              A 
|--------------|--------------|--------------|--------------| 
|--0--0--0--0--|--0--0--0--0--|--0--0--0--0--|--0--0--0--0--| 
|---6--6--6--6-|---6--6--6--6-|---6--6--6--6-|---6--6--6--6-| 
|--------------|--------------|--------------|--------------| 
|--------------|--------------|--------------|--------------| 
|--5--5--5--5--|--5--5--5--5--|--5--5--5--5--|--5--5--5--5--| 
                        I try to discover______  A little something to 
   E              E              C#             C# 
|--------------|--------------|--------------|--------------| 
|--0--0--0--0--|--0--0--0--0--|--0--0--0--0--|--0--0--0--0--| 
|---9--9--9--9-|---9--9--9--9-|---6--6--6--6-|---6--6--6--6-| 
|--------------|--------------|--------------|--------------| 
|--7--7--7--7--|--7--7--7--7--|--4--4--4--4--|--4--4--4--4--| 
|--------------|--------------|--------------|--------------| 
make me sweeter, oh baby please refrain,        from breaking  
 
   D              D              A              A 
|--------------|--------------|--------------|--------------| 
|--0--0--0--0--|--0--0--0--0--|--0--0--0--0--|--0--0--0--0--| 
|---7--7--7--7-|---7--7--7--7-|---6--6--6--6-|---6--6--6--6-| 
|--------------|--------------|--------------|--------------| 
|--5--5--5--5--|--5--5--5--5--|--------------|--------------| 
|--------------|--------------|--5--5--5--5--|--5--5--5--5--| 
  
  my heart           I'm so in love with you, I'll be    fo_  
 
   E              E              D              D 
|--------------|--------------|--------------|--------------| 
|--0--0--0--0--|--0--0--0--0--|--0--0--0--0--|--0--0--0--0--| 
|---9--9--9--9-|---9--9--9--9-|---7--7--7--7-|---7--7--7--7-| 
|--------------|--------------|--------------|--------------| 
|--7--7--7--7--|--7--7--7--7--|--5--5--5--5--|--5--5--5--5--| 
|--------------|--------------|--------------|--------------| 
rever blue,that you give me no reason, why are you making me 
 
   F#m            F#m 
|--------------|--------------|--------------|--------------| 
|--------------|--------------|--------------|--------------| 
|--11----------|-(11)---------|--------------|--------------| 
|--11----------|-(11)---------|--------------|--------------| 
|--9-----------|-(9)----------|--------------|--------------| 
|--------------|--------------|--------------|--------------|                            
work so hard. That you give me no, that you give no, will you give no, no you give me no  
       
A 
soul 
           F#m 
I hear you calling  
        D                    F#m 
oh baby please give a little respect 
D  E    A 
to_____ me 
 
A 
and if I should faulter 
                    E 
would you open your arms out to me 
                     C# 
we can make love not war 
                           D      
and live in peace with our hearts 
          A 
I'm so in love with you 
          E      
I'll be forever blue 
                 D 
what religion or reason  
                   F#m 
can drive a man to forsake his lover  
A 
don't you tell me no 
E 
don't you tell me no 
F#m 
will you give me no 
E 
no you give me no  
 
A 
soul  
           F#m  
I hear you calling  
        D 
oh baby please,  
              F#m 
give a little respect,  
D  E  A   
to___ me,  
      G        E 
turururu turururu 
          A.   
I'm so in love with you,  
I'll be forever blue,  
that you give no reason,  
why are you making me work so hard,  
that you give me no,  
that you give no,  
will you give no,  
no you give no  
A 
soul,  
           F#m 
I hear you calling,  
        D 
oh baby please,  
              F#m 
give a little respect  
D  E  A 
to___ me,  
            
           F#m 
I hear you calling,  
        D       
oh baby please  
              F#m 
give a little respect  
D  E   A 
to____ me.

TOP cifras de Silence 4

  1. Alright
  2. Ceilings
  3. Goodbye tomorrow
  4. Sextos Sentidos
  5. Sleepwalking Convict
  6. Where Are You?
  7. Angel song
  8. Borrow
  9. Cruel II
  10. A Very Little Respect

Pela Web