Cifras Web
Sine Calmon

me ouça

Sine Calmon

12 acessos

intro:


E|---------------------------------|     (2x)
B|---------------------------------|
G|-----------------------------0h2-|
D|------------0h2------------------|
A|-0-0-0-2-3--------0-0-0-2-3------|
E|---------------------------------|


solo da intro:


E|-12/10-8-10-8-10-/12-----------------------------------|
B|-----------------------10-8h10-8-----------------------|
G|---------------------------------9-7/9-----------------|
D|----------------------------------------10-12-10-------|
A|-------------------------------------------------12----|
E|-------------------------------------------------------|



E|--------------------------------------------------------------|
B|-10-12/13-10---------10-12/13-10------------------------12----|
G|-------------12/14---------------12/14---14/12----12-----12---|
D|-----------------------------------------------14-------------|
A|--------------------------------------------------------------|
E|--------------------------------------------------------------|



E|------8----8-10-/12--12/10-8-10--8----8-------15/17(9x)--8--10/12-10----7-8-7h8h7-------------|
B|-8/10---10-------------------------10---------------------------------------------8-8----8/10-|
G|----------------------------------------------------------------------------------------------|
D|-----------------------------------------10---------------------------------------------------|
A|----------------------------------------------------------------------------------------------|
E|----------------------------------------------------------------------------------------------|


   Am         G         F7
A solidão chegou até você
   Am         G         F7
trazendo desespero e aflição
   Am             G         F7
de mais carinho e amor você precisa
   Am         G                   F7
ao teu redor ninguém te estende a mão
   Am           G             F7
alguém te abandonou perante a Vida
   Am             G           F7
deixou sangrando assim teu corção

  G              A|-0-0-0-2-4-5(arma o Dm7)--|
huumm yêah yêah yêah...

  Dm7-(C)  G                       C    G/B
Me ouça um verdadeiro amor nunca esquece
  Am7         Am7(G)  A4/B
porém tudo suporta  tudo  padece
   F               E               A  A|-0-0-0-2-4-5(arma o Dm7)--|
e sempre está presente pois é o próprio amor
  Dm7-(C)  G                           C        G/B
me ouça o exemplo desse amor tão claro como a luz
  Am7        Am7(G)
o mundo todo viu
         A4/B
patente numa cruz
   F             E         Am
vertendo sangue puro de Jesus! 

TOP cifras de Sine Calmon

  1. Nayambing Blues
  2. Sinta e Kaya
  3. Andava Sozinho
  4. O Maluco Que Sabia
  5. Revelação ( Nada de Cor Nas Peles)
  6. Bem-te-vi
  7. É o Eu Sou
  8. Rosa de Saron
  9. Roda Pião
  10. Do Meu Jeito

Pela Web