Cifras Web
Sine Calmon

Remanescente

Sine Calmon

10 acessos

E|------------------------------------------------------|
B|---8/10--8-10-10/11-8-8-6-8--8-6----------------------|
G|-7-------------------------------8-8-8-----8----10/12-|
D|---------------------------------------10----10-------|
A|------------------------------------------------------|
E|------------------------------------------------------|

E|-10-11-10-8-11/13-11-10-8-10/11-10-8------------------------------------------------------|
B|-------------------------------------8-8/10--8-10-10/11-8-8-6-8--8-8-8-6-----------6/8----|
G|-------------------------------------------------------------------------8-8-8----------7-|
D|-------------------------------------------------------------------------------5-8--------|
A|------------------------------------------------------------------------------------------|
E|------------------------------------------------------------------------------------------|

dondonyea

 ( Gm  G#M7  Fm  Cm7(9) )

Das margens do Paraguaçu
em plena América do Sul
só remanescente ficará
só remanescente ficará
Das margens do Paraguaçu
em plena América do Sul
só remanescente ficará
só remanescente ficará

 ( Gm  G#M7  Fm  Cm7(9) )

É a semente do amor
que brota nesta geração
buscando a luz, a paz, a vida e a união
É a semente do amor
que brota nesta geração
buscando a luz, a paz, a vida e a união

 ( Gm  G#M7  Fm  Cm7(9) )


E o Senhor já diz em sua palavra
e com sua autoridade
só remanescente ficará
só remanescente ficará
E o Senhor já diz em sua palavra
e com sua autoridade
só remanescente ficará
só remanescente ficará, meu Deus!

 ( Gm  G#M7  Fm  Cm7(9) )


É a semente do amor
que brota nesta geração
buscando a luz, a paz, a vida e a união
E o Senhor já diz em sua palavra
e com sua autoridade
só remanescente ficará
só remanescente ficará
        Gm
só remanescente ficará
        G#M7             Fm
só remanescente ficaráaaaaaaa
Gm
aaaaaa
G#M7
aaaaaa
Gm
aaaaaa
Fm     Cm7(9) dondonyea (repete tudo)
aaaaa  aa

TOP cifras de Sine Calmon

  1. Nayambing Blues
  2. Sinta e Kaya
  3. Andava Sozinho
  4. O Maluco Que Sabia
  5. Revelação ( Nada de Cor Nas Peles)
  6. Bem-te-vi
  7. É o Eu Sou
  8. Rosa de Saron
  9. Roda Pião
  10. Do Meu Jeito

Pela Web