Cifras Web
Sine Calmon

Te Vejo

Sine Calmon

10 acessos

intro: F F# G 
nipes(G D C D)(2x)

   G              D
Eu vejo você na televisão
   C                   D
Te vejo quando me vejo no espelho
    G                    D
Teu rosto vejo até na escuridão
   C                D
Na tampa daquele blusão
    Em
Vermelho (vermelho)
   C                D
Na tampa daquele blusão
   Em
Vermelho
   D
Te vejo sempre do meu lado
                       C
Até quando você não esteve
          D  Em  D  Em
Eu te vi (te vi, te vi)
    D
E o doce beijo dos seus lábios
                        C          D
Sinto mesmo quando você não está aqui
   Em
Na palma da minha mão
   D
Te vejo
Em
Até no som da canção
   D
Te vejo

(REFRÃO)
G   D   C
Vejo você
   D                      G
Te vejo aqui dentro de mim
   D    C         D
Vejo você, yeah

Dentro de mim  2X

(solo)

E|----------------------------------------12---10----------------------|
B|-12/10-8-10-8-10/12-12/10-8-10-8---------12----12--12/10-8-10-8-8----|
G|---------------------------------9-9---------------------------------|
D|---------------------------------------------------------------------|
A|---------------------------------------------------------------------|
E|---------------------------------------------------------------------|




E|-------14-------15--14-15-14-12-14--17/19-19/17-15-17-17-15--14-15-14h15h14-----12---------------|
B|-12-15----15-12--------------------------------------------------------------15---15-12-15-12----|
G|-------------------------------------------------------------------------------------------------|



E|-----------------------------------------------|
B|----12----------------10/12-12/10-8-10-8-8-----|
G|-14----14--12-14-12-9--------------------------|


repete refrão e depois intro

TOP cifras de Sine Calmon

  1. Nayambing Blues
  2. Sinta e Kaya
  3. Andava Sozinho
  4. O Maluco Que Sabia
  5. Revelação ( Nada de Cor Nas Peles)
  6. Bem-te-vi
  7. É o Eu Sou
  8. Rosa de Saron
  9. Roda Pião
  10. Do Meu Jeito

Pela Web