Cifras Web
Slash

Avalon

Slash

19 acessos

Riff:

Eb|-------------------------------------3---|
Bb|-------------------------------------3---|
Gb|-2---------2---------2---------2-x-x-0---|
Db|-0-3p2p0---0-3-2p0---0-3p2p0---0-x-x-0---|
Ab|---------3---------3---------3-------2---| x3
Eb|-------------------------------------3---|



Eb|-----------------------------------------|
Bb|-----------------------------------------|
Gb|-2---------2---------5~-5~---------------|
Db|-0-3p2p0---0-3-2p0---3~-2~-5~-5~---------|
Ab|---------3---------3-------3~-2~---------| x1
Eb|-----------------------------------------|


Verso:

Eb|-------------------------------3---------|
Bb|-------------------------------3---------|
Gb|-5h7-----5h7-----5h7---------------------|
Db|-0---0-0-0---0-0-----0-0-0-3s5-----------|
Ab|-----------------------------------------| x4
Eb|-----------------------------------------|


Ponte:

Eb|-----------------------------------------|
Bb|-----------------------------------------|
Gb|-----------------------------------------|
Db|-5-5-5h7-----5h7-----5h7-----------------|
Ab|-3-2-0---0-0-0---0-0-0---0-0-------------| x2
Eb|-----------------------------------------|



Eb|-----3~----------------------------------|
Bb|-----3~----------------------------------|
Gb|-----0~-5~-5~----------------------------|
Db|-5-5-0~-3~-2~-5~-5~----------------------|
Ab|-3-2-2~-------3~-2~----------------------| x1
Eb|-----3~----------------------------------|


Pre-Refrão:

Eb|-------------------------------------2---|
Bb|-------------------------------------3---|
Gb|---------------------------------x-x-2---|
Db|-2---------2---------2---------2-x-x-0---|
Ab|-0-3p2p0---0-3-2p0---0-3p2p0---0-x-x-----| x3
Eb|---------3---------3---------3-----------|



Eb|-----------------------------------------|
Bb|-----------------------------------------|
Gb|---------------------5~-5~---------------|
Db|-2---------2---------3~-2~-5~-5~---------|
Ab|-0-3p2p0---0-3-2p0---------3~-2~---------| x1
Eb|---------3---------3---------------------|


Solo:

Eb|---------------------------------------------------------------------------|
Bb|---------------------------------------------------------------------------|
Gb|-9h10p9\7h9p7-----7h9---7~-9h10p9\7h9p7-----10-7---------------------------|
Db|--------------9p7-----9-----------------9p7--------------------------------|
Ab|---------------------------------------------------------------------------|
Eb|---------------------------------------------------------------------------|



Eb|---------------------------------------------------------------------------|
Bb|-------------------------------------------------10h12p10------------------|
Gb|-9h10p9\7h9p7-----7h9---7~-9h10p9\7h9p7-----9/11---------------------------|
Db|--------------9p7-----9-----------------9p7--------------------------------|
Ab|---------------------------------------------------------------------------|
Eb|---------------------------------------------------------------------------|



Eb|--------------------------------------12b13r12p10-12p10-------10h12p10----10-|
Bb|-12b13r12p10-12p10-----------10h12p10-------------------12p10----------12----|
Gb|-------------------11\9-9h11-------------------------------------------------|
Db|-----------------------------------------------------------------------------|
Ab|-----------------------------------------------------------------------------|
Eb|-----------------------------------------------------------------------------|



Eb|-pb13r12p10----pb13r12p10----pb13r12p10----pb13r12p10------------------------|
Bb|------------12------------12------------12------------12---------------------|
Gb|-----------------------------------------------------------------------------|
Db|-----------------------------------------------------------------------------|
Ab|-----------------------------------------------------------------------------|
Eb|-----------------------------------------------------------------------------|



Eb|-10--------------------------------------------------------------------------|
Bb|----13-10----13-10-------------------------------10~-------------------------|
Gb|----------12-------12-10-12b14r12p10-12p10-------10b11~----------------------|
Db|-------------------------------------------12\10-----------------------------|
Ab|-----------------------------------------------------------------------------|
Eb|-----------------------------------------------------------------------------|



TOP cifras de Slash

  1. Shadow Life
  2. Bent To Fly
  3. Wicked Stone
  4. The Dissident
  5. Automatic Overdrive
  6. Too Far Gone
  7. Apocalyptic Love
  8. No More Heroes
  9. Real To Reel Part 2
  10. Battlegroud

Pela Web