Cifras Web
Slash

Doctor Alibi

Slash

14 acessos

(afinação D# G# C# F# A# D#)

(intro)

E|-----------------6-------------------3---|
B|-----------------6-------------------3---|
G|-----------------------------------------|
D|---x-x--5--5---8-----x-x--3----3-s-5-----|
A|---x-x--5--5---8-----x-x--3----3-s-5-----|
E|---x-x--3--3---6-----x-x--1p0--1-s-3-----|


(guitarra solo entra)

E|-----------------------------------------------------------|
B|-----------------------------------------------------------|
G|---7~~~~~~~~~~--------pb7r5-5b7r5-5b7r7-5b7r5-5b7r5-3------|
D|------------------------------------------------------5----|
A|-----------------------------------------------------------|
E|-----------------------------------------------------------|



E|---------------------------------------------------------|
B|--------------------3------------------------------------|
G|----------------------5-5b7r5p3-5----3b5r3----3b5--------|
D|---5--8b--------------------------5--------5------3-5----|
A|----------8~-10~-----------------------------------------|
E|---------------------------------------------------------|



E|------------------------------------------------|
B|--------------8---------8----------8-10b11r10---|
G|---7-10-10b12---7-10b12----10p7-10--------------|
D|------------------------------------------------|
A|------------------------------------------------|
E|------------------------------------------------|



E|------------------------------------------------------------|
B|---8h10------------8----------------------------------------|
G|-------10h12-10b12----10------------------------------------|
D|-------------------------10b11r10p8----8---8b---------------|
A|------------------------------------10---8----10p8---10*----|
E|---------------------------------------------------10-------|


(verso 1)

    "I went to see the doctor..."
(guitarra Rítmica)

E|------------------|
B|------------------|
G|------------------|
D|--5---8---3---5---|
A|--5---8---3---5---|
E|--3---6---1---3---|


    "He said: You're pretty sick..."
(guitarra Rítmica)

E|------------------|
B|------------------|
G|------------------|
D|--5---8---3---5---|
A|--5---8---3---5---|
E|--3---6---1---3---|


(guitarra Solo)

E|-------------|
B|---8---------|
G|-----7p5-----|
D|---------8---|
A|-------------|
E|-------------|


   "You've got some real bad habits..."
(guitarra Rítmica)

E|------------------|
B|------------------|
G|------------------|
D|--5---8---3---5---|
A|--5---8---3---5---|
E|--3---6---1---3---|


(guitarra Solo)

E|------------|
B|------------|
G|------------|
D|------------|
A|---8*-10*---|
E|------------|


    "You'd better stop right quick."

E|------------------|
B|------------------|
G|------------------|
D|--5---8---3---5---|
A|--5---8---3---5---|
E|--3---6---1---3---|


(pré-refrão)
     "I said: Doctor, that's real bad news..."

E|---------------------------------------------|
B|---------------------------------------------|
G|---77777777-----66666666---------------------|
D|---77777777-----66666666---------------------|
A|---55555555-----44444444---------------------|
E|---------------------------------------------|

    "Don't know what I'm gonna do."

E|------------------------------------------------|
B|------------------------------------------------|
G|---55555555----33333333-------------------------|
D|---55555555----33333333-------------------------|
A|---33333333----11111111-------------------------|
E|------------------------------------------------|


(refrão)
    "Doctor, there's nothing wrong with me..."

E|-------------------------------|
B|-------------------------------|
G|-------------------------------|
D|---5--x-x--8--x-x--3--x--5-----|
A|---5--x-x--8--x-x--3--x--5-----|
E|---3--x-x--6--x-x--1--x--3-----|


    "Doctor, doctor, can't you see?"

E|-------------------------------|
B|-------------------------------|
G|-------------------------------|
D|---5--x-x--8--x-x--3--x--5-----|
A|---5--x-x--8--x-x--3--x--5-----|
E|---3--x-x--6--x-x--1--x--3-----|


    "Doctor, I ain't gonna die..."

E|-------------------------------|
B|-------------------------------|
G|-------------------------------|
D|---5--x-x--8--x-x--3--x--5-----|
A|---5--x-x--8--x-x--3--x--5-----|
E|---3--x-x--6--x-x--1--x--3-----|


    "Just write me an alibi."

E|-------------------------------|
B|-------------------------------|
G|-------------------------------|
D|---5--x-x--8--x-x--3--x--5-----|
A|---5--x-x--8--x-x--3--x--5-----|
E|---3--x-x--6--x-x--1--x--3-----|


(verso 2)
    "I went to see a shaman..."
(guitarra Rítmica)

E|------------------|
B|------------------|
G|------------------|
D|--5---8---3---5---|
A|--5---8---3---5---|
E|--3---6---1---3---|


(guitarra Solo)

E|-------3---|
B|-----------|
G|---2h3-----|
D|-----------|
A|-----------|
E|-----------|


    "He said: You'll be alright..."
(guitarra Rítmica)

E|------------------|
B|------------------|
G|------------------|
D|--5---8---3---5---|
A|--5---8---3---5---|
E|--3---6---1---3---|


(guitarra solo)

E|------------------|
B|------------------|
G|---7s10~~~~~~~~---|
D|------------------|
A|------------------|
E|------------------|


    "Just keep doing what you love..."
(guitarra Rítmica)

E|------------------|
B|------------------|
G|------------------|
D|--5---8---3---5---|
A|--5---8---3---5---|
E|--3---6---1---3---|


(guitarra solo)

E|--------------------|
B|--------------------|
Gb|---5*b7r5p3---------|
D|------------5~~~~---|
A|--------------------|
E|--------------------|


    "Every single night."

E|------------------|
B|------------------|
G|------------------|
D|--5---8---3---5---|
A|--5---8---3---5---|
E|--3---6---1---3---|


(pré-refrão)

    "I said: That's what I need to hear..."

E|---------------------------------------------|
B|---------------------------------------------|
G|---77777777----66666666----------------------|
D|---77777777----66666666----------------------|
A|---55555555----44444444----------------------|
E|---------------------------------------------|


    "Puke away my childish fears."

E|------------------------------------------------|
B|------------------------------------------------|
G|---55555555----33333333-------------------------|
D|---55555555----33333333-------------------------|
A|---33333333----11111111-------------------------|
E|------------------------------------------------|


(refrão)

    "Doctor, you're a stand-up guy..."

E|-------------------------------|
B|-------------------------------|
G|-------------------------------|
D|---5--x-x--8--x-x--3--x--5-----|
A|---5--x-x--8--x-x--3--x--5-----|
E|---3--x-x--6--x-x--1--x--3-----|


    "Doctor, doctor, my oh my..."

E|-------------------------------|
B|-------------------------------|
G|-------------------------------|
D|---5--x-x--8--x-x--3--x--5-----|
A|---5--x-x--8--x-x--3--x--5-----|
E|---3--x-x--6--x-x--1--x--3-----|


    "Doctor, you're the one for me..."

E|-------------------------------|
B|-------------------------------|
G|-------------------------------|
D|---5--x-x--8--x-x--3--x--5-----|
A|---5--x-x--8--x-x--3--x--5-----|
E|---3--x-x--6--x-x--1--x--3-----|


    "That's the mojo that I need."

E|-------------------------------|
B|-------------------------------|
G|-------------------------------|
D|---5--x-x--8--x-x--3--x--5-----|
A|---5--x-x--8--x-x--3--x--5-----|
E|---3--x-x--6--x-x--1--x--3-----|


(interludio 1)

    "Don't you know that I feel alright doin' what I do..."

E|---3---------------------6-----------1-----------|
B|---3---------------------6-----------1-----------|
G|---0---------------------7-----------2-----------|
D|---0---------------------8-----------3-----------|
A|---2---------------------8-----------3-----------|
E|---3---------------------6-----------1-----------|


    "I ain't gonna tow the line, not till I turn blue..."

E|---3-------------6-----------1-----------|
B|---3-------------6-----------1-----------|
G|---0-------------7-----------2-----------|
D|---0-------------8-----------3-----------|
A|---2-------------8-----------3-----------|
E|---3-------------6-----------1-----------|


    "All I've got is one short life, that's what people say..."

E|---3---------------6--------------1-----------|
B|---3---------------6--------------1-----------|
G|---0---------------7--------------2-----------|
D|---0---------------8--------------3-----------|
A|---2---------------8--------------3-----------|
E|---3---------------6--------------1-----------|


    "And I ain't gonna waste a second doin' what you say."

E|---3----------------6--------------0-----------|
B|---3----------------6--------------1-----------|
G|---0----------------7--------------0-----------|
D|---0----------------8--------------2-----------|
A|---2----------------8--------------3-----------|
E|---3----------------6--------------------------|


(solo)

E|---------------------------------------|
B|---5b7r5-5b7r5-5b7r5-5b7r5-5b7r5-------|
G|---5b7r5-5b7r5-5b7r5-5b7r5-5b7r5-3-----|
D|-----------------------------------5---|
A|---------------------------------------|
E|---------------------------------------|



E|--------------------------------------------------------------|
B|------------8----------------------8--------------------------|
G|--------------10p7p0-10b12r10p7p0--8----------------------8---|
D|------8-------------------------------10b12r10p8----8-----8---|
A|---10---10---------------------------------------10---10------|
E|--------------------------------------------------------------|



E|---------------------------------------------------------------------|
B|---8-8-6---11-11-8----13-13-11----15-15-13----18-18-15h18s20-20~~~---|
G|---------7---------10----------12----------14------------------------|
D|---------------------------------------------------------------------|
A|---------------------------------------------------------------------|
E|---------------------------------------------------------------------|


*Daqui em diante, improvisação*

E|-------------------------------------------15----------15h18p15-18b20r18-|
B|---20-18--------------------------------15----15-18b20-------------------|
G|---------17b19r17p15-17p15--------17b19----------------------------------|
D|---------------------------17p15-----------------------------------------|
A|-------------------------------------------------------------------------|
E|-------------------------------------------------------------------------|



E|---18-15h18p15----15---------------------------------------|
B|---------------18----18-15---------------------------------|
G|---------------------------17b19r17p15-17p15-------17-15---|
D|---------------------------------------------17p15-17-15---|
A|-----------------------------------------------------------|
E|-----------------------------------------------------------|



E|---15h18p15h18p15h18p15h20p15h18p15h20p15h18p15h20p15h18p15---|
B|--------------------------------------------------------------|
G|--------------------------------------------------------------|
D|--------------------------------------------------------------|
A|--------------------------------------------------------------|
E|--------------------------------------------------------------|



E|---------18-------------15----------------------------|
B|---18b20----r18p15------------------------------------|
G|------------------17b19----r17p15----15-17-15b16------|
D|----------------------------------17-------------17---|
A|------------------------------------------------------|
E|------------------------------------------------------|



E|------------------------- 15-15-15--15--15--15--15--18----|
B|---18b20-----------18b20--------18b-18b-18b-18b-18b-21b---|
G|----------------------------------------------------------|
D|----------------------------------------------------------|
A|----------------------------------------------------------|
E|----------------------------------------------------------|


(interludio 2)

I won't be the one you like, I won't be the boy next door, I won't be the chosen one.
That's not what I'm here for.
I don't like the way you are, I despise what you hold dear. Don't you try to make me change.
I'll haunt you for a thousand years.

(outro)

    "Doctor, don't you talk that way!"

E|-------------------------------|
B|-------------------------------|
G|-------------------------------|
D|---5--x-x--8--x-x--3--x--5-----|
A|---5--x-x--8--x-x--3--x--5-----|
E|---3--x-x--6--x-x--1--x--3-----|


    "Doctor, don't you mess my day"

E|-------------------------------|
B|-------------------------------|
G|-------------------------------|
D|---5--x-x--8--x-x--3--x--5-----|
A|---5--x-x--8--x-x--3--x--5-----|
E|---3--x-x--6--x-x--1--x--3-----|


    "Doctor, stay away from me!

E|-------------------------------|
B|-------------------------------|
G|-------------------------------|
D|---5--x-x--8--x-x--3--x--5-----|
A|---5--x-x--8--x-x--3--x--5-----|
E|---3--x-x--6--x-x--1--x--3-----|


    "Sick is what I'd rather be!"

E|-------------------------------|
B|-------------------------------|
G|-------------------------------|
D|---5--x-x--8--x-x--3--x--5-----|
A|---5--x-x--8--x-x--3--x--5-----|
E|---3--x-x--6--x-x--1--x--3-----|


(riff)
    "Doctor, doctor, doctor Death!"

E|----------------------------------|
B|-------14h15--11-14h5-----11------|
G|---12~-----------------10----12---|
D|----------------------------------|
A|----------------------------------|
E|----------------------------------|


    "Doctor, doctor, out of breath!"

E|-----------------------13s15-15~~~~---|
B|-------14h15--11-14h15----------------|
G|---12~--------------------------------|
D|--------------------------------------|
A|--------------------------------------|
E|--------------------------------------|


    "Doctor, I ain't gonna die..."

E|----------------------------------|
B|-------14h15--11-14h5-----11------|
G|---12~-----------------10----12---|
D|----------------------------------|
A|----------------------------------|
E|----------------------------------|


    "Just write me an alibi!"
E|-----------------------13s15-15~~~~---|
B|-------14h15--11-14h15----------------|
G|---12~--------------------------------|
D|--------------------------------------|
A|--------------------------------------|
E|--------------------------------------|

TOP cifras de Slash

  1. Shadow Life
  2. Bent To Fly
  3. Wicked Stone
  4. The Dissident
  5. Automatic Overdrive
  6. Too Far Gone
  7. Apocalyptic Love
  8. No More Heroes
  9. Real To Reel Part 2
  10. Battlegroud

Pela Web