Cifras Web
Slash

Halo

Slash

22 acessos

Slash

E|---------------------------------------------------------------------------|
B|---------------------------------------------------------------------------|
G|---------------------------------------------------------------------------|
D|-----4-3---2---------2~------2-1-------------------------------------------|
A|---------4---3-2-0h2-0~--0-------3-2-0-2-3-4-4~----------------------------|
E|-0-2-----------------------4-----------------2~----------------------------|


Myles

E|---------------------------------------------------------------------------|
B|---------------------------------------------------------------------------|
G|-2~-2-2------------2~-2-2------------2~---------------2~-------------------|
D|-2~-2-2---4~-------2~-2-2---4~-------2~-2----4~-------2~-2-----------------|
A|-0~-0-0---4~-4-4---0~-0-0---4~-4-4---0~-0----4~-4-4---0~-0-----------------|
E|----------2~-2-2------------2~-2-2--------4--2~-0h2---------4--------------|


Riff:

Both       Slash

E|-------|------------------------------------------------------------------|
B|-------|------------------------------------------------------------------|
G|----4--|------------------------------------------------------------------|
D|-2--4--|-4-3--------2-2--------2-x-1--------------------------------------|
A|-2--2--|-----4----------4------------4------5-5-4-------------------------|
E|-0-----|-------0h2--------0h2----------0h2--------0h2---------------------|


Verse:


E|---------------------------------------------------------------------------|
B|-3-3-----------------3~-----------------3-3-----------------3~-------------|
G|-2-2-2~--4-4---------2~-----------------2-2-2~--4-4---------2~--2-2-1~-----|
D|-0-0-2~--4-4-4~------0~------4~---------0-0-2~--4-4-4~------0~--2-2-2~-3~--|
A|-----0~--2-2-4~--4-4-----2-2-4~-------------0~--2-2-4~--4-4-----0-0-2~-3~--|
E|-------------2~--2-2-----0-0-2~--14s0---------------2~--2-2---------0~-1~--|


Go back to the riff for the chorus.

Pre Solo:


E|---------------------------------------------------------------------------|
B|---------------------------------------------------------------------------|
G|---------------------------------2-----------------------------------------|
D|-2h4-4-x-x-x-2h4-x-x-x-2h4-x-x-x-2-2---------------------------------------|
A|-2h4-4-x-x-x-2h4-x-x-x-2h4-x-x-x---2---------------------------------------| x4
E|---------------------------------------------------------------------------|


SOLO


FINAL

E|---------------------------------------------------------------------------|
B|---------------------------------------------------------------------------|
G|---------------------------------------------------------------------------|
D|--4-3--------2-2--------2-x-1-------------------7-9-11--------------------|
A|------4----------4------------4------5-5-4------5-7-9---------------------|
E|--------0h2--------0h2----------0h2--------0h2-----------------------------|

TOP cifras de Slash

  1. Shadow Life
  2. Bent To Fly
  3. Wicked Stone
  4. The Dissident
  5. Automatic Overdrive
  6. Too Far Gone
  7. Apocalyptic Love
  8. No More Heroes
  9. Real To Reel Part 2
  10. Battlegroud

Pela Web