Cifras Web
Small Faces

Just Passing

Small Faces

6 acessos

*
12th December 2000, *
Shaun Hand, Birmingham

JUST PASSING
(Marriott, Laine)

B-side to 'I Can't Make It' (Immediate, 1966)

Transcribed for
Guitar 2 (Right speaker) Clean w/tremolo effect.

Intro:


--------------------------|
--------------------------|
--6--4--6-----6--4--------|
-----------6--------7--6--|
--------------------------|
--------------------------|




-----------------------0h2p0-----------0h2p0-----------------------0h2p0--|
--------------------2---------------2---------------------------2---------|
--6--4-----------3---------------3------------6--4-----------3------------|
--------7--6--0---------------0---------------------7--6--0---------------|
--------------------------------------------------------------------------|
--------------------------------------------------------------------------|



------------------------------------------|
------------------------------------------|
------------------6--4--------6-----------| (x2)
------------7-----------7--6-----5--7--6--|
-------7-------8--------------------------|
--0---------------------------------------|



the stereo version of this song and you'll understand.
The acoustic guitar in the left speaker just plays the chords and is easy enought to figure out.

The main riff to the song is played on the piano but is played on the high E string of the guitar like this:

--5----0--2--4--2----0----

TOP cifras de Small Faces

  1. The Hungry Intruder
  2. Rene
  3. Song Of a Baker
  4. Call It Something Nice
  5. Mad John
  6. Talk To You
  7. Wild World
  8. That Man
  9. I've Got Mine
  10. Just Passing

Pela Web