Cifras Web
Small Faces

Tin Soldier

Small Faces

5 acessos

Tabbed By : peyo
e-mail: *

Tuning: standard

0:12
G|---------------------------------------------------------------------------|
D|-----5-----7---------------5-----7-----------------------------------------|
A|--7-----5-----7---------7-----5-----7--------------------------------------|
E|--------------------0h7----------------0h5-7-5h7---------------------------|

0:28
G|---------------------------------------------------------------------------|
D|---------------------------------------------------------------------------|
A|--------------------------5--5-5-------------------------------------------|
E|--0--0-0-0--0-3--3-3-3--3--------5--5-5-0--5--0--5h7-5h7-------------------|

0:44
G|---------------------------------------------------------------------------|
D|-----5-----7------------5-----7--------------------------------------------|
A|--7-----5-----7------7-----5-----4-----------------------------------------|
E|--0------------------0-----------------------------------------------------|

1:00
G|---------------------------------------------------------------------------|
D|----------------------7-----4--4-------------------------------------------|
A|--------4--5--5--4-5-----5--------------------------4-----5-5-3h5----------|
E|--5--7----------------------------12/-5--5-5-7-5-7-----2----------5--------|

G|---------------------------------------------------------------------------|
D|---------------------------------------------------------------------------|
A|-------------4-----5-5-3h5-------------------------------------------------|
E|--5-5-7-5-7-----2----------0-----------------------------------------------|

1:14
G|---------------------------------------------------------------------------|
D|---------------------------------------------------------------------------|
A|--7--7--7-7---5----7--7--7-7---5----7--7--7-7---5----7--7--7-7---5---------|
E|------------7---0------------7---0------------7---0------------7---0-------|

G|---------------------------------------------------------------------------|
D|---------------------------------------------------------------------------|
A|--7--7--7-7---5----7--7--7-7---5-------0----0------------------------------|
E|------------7---0------------7---0--10---10---8--7/--0---------------------|

1:34
G|---------------------------------------------------------------------------|
D|---------------------------------------------------------------------------|
A|------------------------------2------------------2-------------------------|
E|--7-7-9-10-12/--3-3--5--3-3-5---0--3-3--5--3-3-5---0--3-3--5--3-7-5h7------|

G|----9-----7----7\9------------9-----7----7\9-------------------------------|
D|------7\9----7-----7\9/5--------7\9----7-----7\9/5-------------------------|
A|--7-------------------------7----------------------------------------------|
E|--0-------------------------0-----------------------0----------------------|

1:56
G|---------------------------------------------------------------------------|
D|---------------------------------------------------------------------------|
A|--7--7--7-7---5----7--7--7-7---5----7--7--7-7---5----7--7--7-7---5---------|
E|------------7---0------------7---0------------7---0------------7---0-------|

G|---------------------------------------------------------------------------|
D|---------------------------------------------------------------------------|
A|--7--7--7-7---5----7--7--7-7---5-------0----0------------------------------|
E|------------7---0------------7---0--10---10---8--7/--0---------------------|

2:12
G|---------------------------------------------------------------------------|
D|-----5-----7------------5-----7--------------------------------------------|
A|--7-----5-----7------7-----5-----4-----------------------------------------|
E|--0------------------0-----------------------------------------------------|

2:28
G|---------------------------------------------------------------------------|
D|----------------------7-----4--4-------------------------------------------|
A|--------4--5--5--4-5-----5--------------------------4-----5-5-3h5----------|
E|--5--7----------------------------12/-5--5-5-7-5-7-----2----------5--------|

G|---------------------------------------------------------------------------|
D|---------------------------------------------------------------------------|
A|-------------4-----5-5-3h5-------------------------------------------------|
E|--5-5-7-5-7-----2----------0-----------------------------------------------|

2:40
G|---------------------------------------------------------------------------|
D|---------------------------------------------------------------------------|
A|--7--7--7-7---5----7--7--7-7---5----7--7--7-7---5----7--7--7-7---5---------|
E|------------7---0------------7---0------------7---0------------7---0-------|

G|------------------------------------------------------------------------------------|
D|------------------------------------------------------------12-12-12-12-12-12-12-12-|
A|--7--7--7-7---5----7--7--7-7---5----------------------------------------------------|
E|------------7---0------------7---0--10-10-10-10-10-10-10-10-------------------------|

2:56
G|---------------------------------------------------------------------------|
D|---------------------------------------------------------------------------|
A|--------------7---7-5--7---------------7---7-5-----------------------------|
E|--0--0-0--5-7---7--------7-0--0-0--5-7---7---------------------------------|

3:06
G|---------------------------------------------------------------------------|
D|---------------------------------------------------------------------------|
A|---------------------------------------------------------------------------|
E|--5-5-5-5-5-5-5-5-7-7-7-7-7-7-7-7-8-8-8-8-8-8-8-8-10-10-10-10-10-10-10-10--|

G|---------------------------------------------------------------------------|
D|---------------------------------------------------------------------------|
A|---------------------------------------------------------------------------|
E|--12--12-12----------------------------------------------------------------|


| /  slide up
| \  slide down
| h  hammer-on
| p  pull-off
| ~  vibrato
| +  harmonic
| x  Mute note
===============================================================================

TOP cifras de Small Faces

  1. The Hungry Intruder
  2. Rene
  3. Song Of a Baker
  4. Call It Something Nice
  5. Mad John
  6. Talk To You
  7. Wild World
  8. That Man
  9. I've Got Mine
  10. Just Passing

Pela Web