Cifras Web
Snuff

Nick Northern

Snuff

8 acessos

tabbed by Joel Amos
send questions, comments or bomb threats to *


MAIN PART:
[----------------------------------------------------------]
[--------------------------------3-----3-----3-3-2-2-------]
[-----------------3-----3-----3-3--------------------------]
[--5-----5-----5-5-----------------------------------0-3---]

OTHER PART (Middle of song):
[----------------------------------------------------------]
[-----------------------------3-3--------------------------]
[-----------------3-3-3-3-3-3------------------------------]
[--5-----5-------------------------------------------0-3---]


There are a few changes in the song but nothing dramatic. This is as close as you'll get if you are as unco as me. Thanx to my bass teacher:).

NOFX and Fat Wreck Chords rock!
GO VEGAN!

Submitted by:  Joel Amos (*)

TOP cifras de Snuff

  1. Arsehole
  2. Martin
  3. All You Need
  4. Slipknot
  5. Nick Northern
  6. Pass Me By
  7. Words Of Wisdom

Pela Web