Cifras Web
Snuff

Pass Me By

Snuff

6 acessos

#



Tabbed by TN*

Finally, my first posting, its not my greatest of work but it'll do.
Most of my tabs are usually very proffesional.
one of my favorites.


e :5---5-----7p5---5-|--------------------|5---5-------5h7-8p7-5---|
B :5---5---7-----7---|--------------------|5---5---5h7-----------7-|
G :------------------|5---5--5-5-/7-7-7---|------------------------|
D :------------------|5---5--5-5-/7-7-7---|------------------------|
A :------------------|3---3--3-3-/5-5-5---|------------------------|
E :------------------|--------------------|------------------------|




e :--------------------|5---5-------5---------|--------------------|
B :--------------------|5---5---5h7---7-7p5-5-|--------------------|
G :5---5--5-5-/7-7-7---|----------------------|5---5--5-5-/7-7-7---|
D :5---5--5-5-/7-7-7---|----------------------|5---5--5-5-/7-7-7---|
A :3---3--3-3-/5-5-5---|----------------------|3---3--3-3-/5-5-5---|
E :--------------------|----------------------|--------------------|


						Repeat this part the

e :5---5-----------------|---------------------|--------------------|
B :5---5----5----5----5--|---------------------|--------------------|
G :*-----7-b--7-b--7-b---|5---5--5-5-/7-7-7----|*-------------------|
D :*---------------------|5---5--5-5-/7-7-7----|*7---7--7-7-7-5-5-5-|
A :*---------------------|3---3--3-3-/5-5-5----|-7---7--7-7-7-5-5-5-|
E :----------------------|------------------10\|-5---5--5-5-5-3-3-3-|


whole song.

e :--------------------|
B :--------------------|
G :5---5--5-5-5-------*|
D :5---5--5-5-5-7-7--5*|
A :3---3--3-3-3-7-7--5-|
E :-------------5-5--3-|


Thats pretty much all there is to the song except for the solo which I'm
too lazy to figure out, so just make something up, its in A pentatonic.

TAb KeY
h=hammer-on
p=pull-off
b=bend
\=slide
(Like you didn't already know this)

"Have a Day"

TOP cifras de Snuff

  1. Arsehole
  2. Martin
  3. All You Need
  4. Slipknot
  5. Nick Northern
  6. Pass Me By
  7. Words Of Wisdom

Pela Web