Cifras Web
Snuff

Words Of Wisdom

Snuff

5 acessos

Date: Wed, 06 May 1998 18:58:12 -0400
From: Stash Fortier 


-----------------------------------------------------------------------
-----------------------------------------------------------------------


By:Stash Fortier(*)

INTRO PART 1                        PART 2

e|---------------------------------|------------------------------------|
B|---------------------------------|------------------------------------|
G|-4-4-4-4-4-4-4-4---------2-2-2-2-|-----------------9-9-9-9------------|
D|-4-4-4-4-4-4-4-4-2-2-2-2-2-2-2-2-|-9-9-9-9-9-9-9-9-9-9-9-9-7-7-7-7----|X5
A|-2-2-2-2-2-2-2-2-2-2-2-2-0-0-0-0-|-9-9-9-9-9-9-9-9-7-7-7-7-7-7-7-7----|
E|-----------------0-0-0-0---------|-7-7-7-7-7-7-7-7---------5-5-5-5----|


VERSE

e|--------------------------------------------------------------------|
B|--------------------------------------------------------------------|
G|-4-4-4-4-4-4-4-4-4-4--9-9-9-9-9-9-------------------then X2 without-|
D|-4-4-4-4-4-4-4-4-4-4--9-9-9-9-9-9--7-7-7-7-7-7--X2---palm muting----|
A|-2-2-2-2-2-2-2-2-2-2--7-7-7-7-7-7--7-7-7-7-7-7----------------------|
E|-----------------------------------5-5-5-5-5-5----------------------|

     PM.............      PM.....      PM.....

CHORUS GUITAR 1 - Same as INTRO PART 2 but only X2

CHORUS GUITAR 2

e|--------------------------------------------------------------------|
B|--------------------------------------------------------------------|
G|--7----6-7---5------------------------------------------------------|
D|-----------------7---X2---------------------------------------------|
A|--------------------------------------------------------------------|
E|--------------------------------------------------------------------|


REPEAT VERSE
REPEAT CHORUS

BRIDGE

e|--------------------------------------------------------------------|
B|--------------------------------------------------------------------|
G|----------7-7-7-7----There is a lead with the 4 ds that i can't-----|
D|-9-9-9-9--7-7-7-7----figure *|
A|-9-9-9-9--5-5-5-5---------------------------------------------------|
E|-7-7-7-7------------------------------------------------------------|


REPEAT VERSE
REPEAT CHORUS X4

END
e|--------------------------------------------------------------------|
B|--------------------------------------------------------------------|
G|-4------------------------------------------------------------------|
D|-4------------------------------------------------------------------|
A|-2------------------------------------------------------------------|
E|--------------------------------------------------------------------|

TOP cifras de Snuff

  1. Arsehole
  2. Martin
  3. All You Need
  4. Slipknot
  5. Nick Northern
  6. Pass Me By
  7. Words Of Wisdom

Pela Web