Cifras Web
Soil

Man I Am

Soil

7 acessos


#------------Created with Taborama Tab Creator-----------------#
#------------------------------------------------------------------------------#


Album: Throttle Junkies

Instrument: Guitar

Tabbed by: Matt Hoy  (D*)

Tuning: 1 Step Down (C G C F A D)part 1.(acoustic) intro & verse

D|--------------
A|--------------
F|--------------
C|--8-88-0-000--
G|--8-88-0-000--
C|--8-88-0-000--


part 2. (clean electric)

D|--------------
A|--------------
F|--------------
C|-5h7h8p5h7----
G|--------------
C|--------------


part 3. (dist. electric)

D|-------------------------------------------------------------------||
A|-------------------------------------------------------------------||
F|-------------------------------------------------------------------||
C|-------------------------------------------------------------------||
G|--3-333/12-121212\9-999\5-555-3-333/12-121212/15-151515\9-999------||
C|--3-333/12-121212\9-999\5-555-3-333/12-121212/15-151515\9-999------||


part 4. (dist. electric)

D|-------------------------------------------------------------------||
A|-------------------------------------------------------------------||
F|-------------------------------------------------------------------||
C|-00-0-0-3-33-5-55-3-33-000--333-555-777-999-999-777-555-333--------||
G|-------------------------------------------------------------------||
C|-------------------------------------------------------------------||


part 4.b (dist. elec.

D|-------------------------------------------------------------------||
A|-------------------------------------------------------------------||
F|-------------------------------------------------------------------||
C|-00-0-0-3-33-5-55-3-33-000--333-555-777-555-3333-222---------------||
G|-------------------------------------------------------------------||
C|-------------------------------------------------------------------||


part 1   x 4
part 1&2 x 4
part 1   x 4
part 1&2 x 3
part 3   x 1
part 1   x 4
part 1&2 x 4
part 3   x 2
part 4b  x 1 
part 4   x 1
part 1   x 2
part 3   x 2
part 4b  x 1
part 4   x 1
part 3   x 2
part 3   x 3 with solo (sorry, no solo)
part 4b  x 1
part 4   x 1
thats it.

TOP cifras de Soil

  1. Can You Heal Me
  2. Deny Me
  3. Fight For Life
  4. Last Chance
  5. Man I Am
  6. Breaking Me Down
  7. F-hole
  8. Black 7
  9. Broken Wings
  10. Give It Up

Pela Web