Cifras Web
S.O.J.A. (Soldiers of Jah Army)

She Still Loves Me

S.O.J.A. (Soldiers of Jah Army)

37 acessos

Intro:  A  D  F#m  E


E|---7-5----7-5----7-5-----7-5--------------|
B|-5------5----7-5-----7-5-----9-7-5--------|
G|------------------------------------------|
D|------------------------------------------|
A|------------------------------------------|
E|------------------------------------------|



E|---7-5----7-5----7-5-----7-5--------------|
B|-5----7-5------5-----7-5-----9-7-5--------|
G|------------------------------------------|
D|------------------------------------------|
A|------------------------------------------|
E|------------------------------------------|


Refrão:
             A                     D
I know it`s hard now for you to see
                           F#m
You can`t change how it was or how
              E
It's gonna be.
            A
I'm what she wants You're
                    D
just what she needs?
                         F#m
And if she still loves me
                   E
She still loves me.

                F#m
Where is her sweater?
                 E
Is not in her car
                  Bm
Is not at her friend`s house
                E
Is not at the bar

               F#m
I think you better,
                  E
Think with the heart
                      Bm
Take a look at yourself and see
                        E
how lucky you really are.

            F#m               E
I don`t believe in luck after all
              Bm
Neither does she
                   E
But you know that now
                 F#m
You should forget her
                     E
Cause I`ve got her heart
               Bm                    E
She hates the way that I tear it apart

             A                   D
I know it`s hard now for you to see
                         F#m
You can`t change how it was or how
              E
It's gonna be.
          A
I'm what she wants You're
                    D
just what she needs
                    F#m
oh well, she still loves me
                 E
She still loves me.

                 F#m
What did she do today
                   E
That took her so long?
              Bm
Where is she been to,
              E
Where is she gone?

               F#m
What does she think about,
                     E
When she sees the dawn?
                       Bm
When you feel her thinking
                 E
And rolling around
                  F#m
What does she talk about
                 E
When her father calls?
                   Bm
She says what you said, she tells her old man
               E
you're the one
               F#m                      E
What does she talk about when her mother calls?
                  Bm
You don`t come up,
                     E
You don't come up at all.

Intro: A  D  F#m  E


E|---7-5----7-5----7-5-----7-5--------------|
B|-5------5----7-5-----7-5-----9-7-5--------|
G|------------------------------------------|
D|------------------------------------------|
A|------------------------------------------|
E|------------------------------------------|



E|---7-5----7-5----7-5-----7-5--------------|
B|-5----7-5------5-----7-5-----9-7-5--------|
G|------------------------------------------|
D|------------------------------------------|
A|------------------------------------------|
E|------------------------------------------|


           F#m                       E
What do we do when life take us so long?
                      Bm                          E
Why we waste so much time, you know, I`ll never know.
            F#m                    E
Why do we stay here, why don`t we go?
                     Bm                    E
Why does everybody think that they can do both?

             A                   D
I know it`s hard now for you to see
                         F#m
You can`t change how it was or how
                  E
It's gonna be.
          A
I'm what she wants You're
                  D
just what she needs?
                    F#m
and, she still loves me
                 E
She still loves me.

             A                     D
I know it`s hard now for you to see
                         F#m
Cause you can`t change a thing about
               E
how it use to be
                     A
And I`m what she wants
                        D
And you are just she needs
                     F#m                   E
But she still loves me,  she still loves me.
                  A
She still loves me.

TOP cifras de S.O.J.A. (Soldiers of Jah Army)

  1. Not Done Yet
  2. Everything Changes
  3. Rasta Courage
  4. Rest Of My Life
  5. When We Were Younger
  6. Open My Eyes
  7. I Don't Wanna Wait
  8. You And Me
  9. Tear It Down
  10. Jah Atmosphere

Pela Web