Cifras Web
Sonata Arctica

The Cage

Sonata Arctica

10 acessos

Key solo


E||--5r---------------|----5-7-5-3-2--3--5--7--7r-|
B||-------------------|---------------------------|
G||-------------------|---------------------------|
D||-------------------|---------------------------|
A||-------------------|---------------------------|
E||-------------------|---------------------------|





----7----5-3-2---3-2-------|-------------------------|
---------------------5-3---|-------------------------|
-------------------------5-|--4~---------2-4-2-------|
---------------------------|-------------------5--4b-|
---------------------------|-------------------------|
---------------------------|-------------------------|





----------------------------|
----------------------------|
----------------------------|
--------------------5-----5-|
--------2---7---2-7---2-7---|
----------3---3-------------|





-------------------------------------|
-----------------5-8-10-8-7-8-7-5-3--|
---------------4---------------------|
--9---5-9-14-5-----------------------|
----7--------------------------------|
-------------------------------------|





----------------------------|-----------------------------|
--8------10-5-12------13-10-|--12----------10-12-10-8--7--|
----------------------------|-----------------------------|
----------------------------|-----------------------------|
----------------------------|-----------------------------|
----------------------------|-----------------------------|





-----------------------------------------|
--8-10-8-7-5-7-8-7-5-4-5-7-8-10-12-8-5---|
---------------------------------------4-|
-----------------------------------------|
-----------------------------------------|
-----------------------------------------|





----------------------------------|
----5-----------------------------|
------------2-4-5-4-2-------------|
--5---2-4-5-----------5-4-7-5-4---|
--------------------------------7-|
----------------------------------|





--------------------------------|
--------------------------------|
----------------4---5---7---9-7-|
-----2---2----------------------|
--5----5---5------5---5---5-----|
--------------------------------|





----------------------------------|
----------------------------------|
--7---5---4---7---5---4---2---5---|
----------------------------------|
----5---5---5---5---5---5---5---5-|
----------------------------------|





------------------------------------------------|
--------------------------------------8-7-5-3-5-|
--4-5-4---------------------------7-7-----------|
--------7-5-4-7-5-4-2-4---2-4-5-7---------------|
------------------------5-----------------------|
------------------------------------------------|





----------------------------------------------------------|
--7-8-10-12-13-15-13-12-10-8-7-10-8-7-8-7-5-3---5---------|
----------------------------------------------5---5-4-2---|
--------------------------------------------------------5-|
----------------------------------------------------------|
----------------------------------------------------------|





------------------------------------------|
------------------------------------------|
----4-------4-----------------------------|
--4---4-------4-----5-----------5---------|
--------5-2-----5-2---5-2---2-----7-2-3-5-|
--------------------------3---3-----------|





-------------------------------------------------|
------------------------5-8-7-5---5-7-8-10-12-15-|
--------------------4-7---------7----------------|
----4-5-4-----4-5-7------------------------------|
--7-------5-7------------------------------------|
-------------------------------------------------|





--------------------|------------------|------------------|
--17----------------|------------------|------------------|
--------------------|------------------|------------------|
--------------------|------------------|------------------|
--------------------|------------------|------------------|
--------------------|------------------|------------------|



distortion guitar

-------------------|--------------------|-------------------|
--5----------------|--------------------|-------------------|
--4----------------|--4--------5--------|-------------------|
-------------------|--5--------5--------|--7----------------|
-------------------|--------------------|--7----------------|
-------------------|--------------------|-------------------|





--------------------|-------------------|--------------------|-------------------|
--------------------|--5----------------|--------------------|-------------------|
--------------------|--4----------------|--4--------5--------|-------------------|
--5--------4--------|-------------------|--5--------5--------|--7----------------|
--5--------5--------|-------------------|--------------------|--7----------------|
--------------------|-------------------|--------------------|-------------------|





--------------------|--------------------------------|--------------------------------|
--------------------|--5----------5------------------|--------------------------------|
--------------------|--4----------4------------------|--4----------5------------------|
--5--------4--------|-----2-2-2-2----2-2-2-2-2-2-2-2-|--5----------5------------------|
--5--------5--------|--------------------------------|-----2-2-2-2----3-3-3-3-3-3-3-3-|
--------------------|--------------------------------|--------------------------------|





--------------------------------|--------------------------------|--------------------------------|
--------------------------------|--------------------------------|--5----------5------------------|
--------------------------------|--------------------------------|--4----------4------------------|
--5----------5------------------|--5----------4------------------|-----2-2-2-2----2-2-2-2-2-2-2-2-|
--5----------5------------------|--5----------5------------------|--------------------------------|
-----3-3-3-3----3-3-3-3-3-3-3-3-|-----3-3-3-3----2-2-2-2-2-2-2-2-|--------------------------------|





--------------------------------|--------------------------------|--------------------------------|
--------------------------------|--------------------------------|--------------------------------|
--4----------5------------------|--4----------4------------------|--------------------------------|
--5----------5------------------|--5----------5------------------|--5----------4------------------|
-----2-2-2-2----3-3-3-3-3-3-3-3-|--------------------------------|--5----------5------------------|
--------------------------------|-----3-3-3-3----3-3-3-3-3-3-3-3-|-----3-3-3-3----2-2-2-2-2-2-2-2-|





--------------------------------|--------------------------------|--------------------------------|
--------------------------------|--------------------------------|--------------------------------|
--5----------5------------------|--5----------5------------------|--7----------7------------------|
--5----------5------------------|--5----------5------------------|--7----------7------------------|
-----3-3-3-3----3-3-3-3-3-3-3-3-|-----3-3-3-3----3-3-3-3-3-3-3-3-|-----5-5-5-5----5-5-5-5-5-5-5-5-|
--------------------------------|--------------------------------|--------------------------------|





--------------------------------|--------------------------------|--------------------------------|
--------------------------------|--------------------------------|--------------------------------|
--------------------------------|--5----------5------------------|--5----------5------------------|
--5----------5------------------|--5----------5------------------|--5----------5------------------|
--5----------5------------------|-----3-3-3-3----3-3-3-3-3-3-3-3-|-----3-3-3-3----3-3-3-3-3-3-3-3-|
-----3-3-3-3----3-3-3-3-3-3-3-3-|--------------------------------|--------------------------------|





--------------------------------|--------------------------------|--------------------------------|
--------------------------------|--------------------------------|--------------------------------|
--7----------7------------------|--------------------------------|--5----------5------------------|
--7----------7------------------|--5----------5------------------|--5----------5------------------|
-----5-5-5-5----5-5-5-5-5-5-5-5-|--5----------5------------------|-----3-3-3-3----3-3-3-3-3-3-3-3-|
--------------------------------|-----3-3-3-3----3-3-3-3-3-3-3-3-|--------------------------------|





--------------------------------|--------------------------------|--------------------------------|
--------------------------------|--------------------------------|--------------------------------|
--5----------5------------------|--5----------5------------------|--7----------7------------------|
--5----------5------------------|--5----------5------------------|--7----------7------------------|
-----3-3-3-3----3-3-3-3-3-3-3-3-|-----3-3-3-3----3-3-3-3-3-3-3-3-|-----5-5-5-5----5-5-5-5-5-5-5-5-|
--------------------------------|--------------------------------|--------------------------------|





-------------------|-------------------|-------------------|-------------------|-------------------|
--5----------------|-------------------|-------------------|-------------------|--5----------------|
--4----------------|----------5--------|--7----------------|----------7--------|--4----------------|
-------------------|----------5--------|--5----------------|----------5--------|-------------------|
-------------------|-------------------|-------------------|-------------------|-------------------|
-------------------|-------------------|-------------------|-------------------|-------------------|





-------------------|-------------------|-------------------|-------------------|
-------------------|-------------------|-------------------|--5----------------|
----------5--------|--7----------------|-------------------|--4----------------|
----------5--------|--5----------------|----------7--------|-------------------|
-------------------|-------------------|----------5--------|-------------------|
-------------------|-------------------|-------------------|-------------------|





--------------------|-------------------|--------------------|-------------------|
--------------------|-------------------|--------------------|--5----------------|
--4--------5--------|-------------------|--------------------|--4----------------|
--5--------5--------|--7----------------|--5--------4--------|-------------------|
--------------------|--7----------------|--5--------5--------|-------------------|
--------------------|-------------------|--------------------|-------------------|





--------------------|-------------------|--------------------|--------------------------------|
--------------------|-------------------|--------------------|--5----------5------------------|
--4--------5--------|-------------------|--------------------|--4----------4------------------|
--5--------5--------|--7----------------|--5--------4--------|-----2-2-2-2----2-2-2-2-2-2-2-2-|
--------------------|--7----------------|--5--------5--------|--------------------------------|
--------------------|-------------------|--------------------|--------------------------------|





--------------------------------|--------------------------------|--------------------------------|
--------------------------------|--------------------------------|--------------------------------|
--4----------5------------------|--------------------------------|--------------------------------|
--5----------5------------------|--5----------5------------------|--5----------4------------------|
-----2-2-2-2----3-3-3-3-3-3-3-3-|--5----------5------------------|--5----------5------------------|
--------------------------------|-----3-3-3-3----3-3-3-3-3-3-3-3-|-----3-3-3-3----2-2-2-2-2-2-2-2-|





--------------------------------|--------------------------------|--------------------------------|
--5----------5------------------|--------------------------------|--------------------------------|
--4----------4------------------|--4----------5------------------|--4----------4------------------|
-----2-2-2-2----2-2-2-2-2-2-2-2-|--5----------5------------------|--5----------5------------------|
--------------------------------|-----2-2-2-2----3-3-3-3-3-3-3-3-|--------------------------------|
--------------------------------|--------------------------------|-----3-3-3-3----3-3-3-3-3-3-3-3-|





--------------------------------|--------------------------------|--------------------------------|
--------------------------------|--------------------------------|--------------------------------|
--------------------------------|--5----------5------------------|--5----------5------------------|
--5----------4------------------|--5----------5------------------|--5----------5------------------|
--5----------5------------------|-----3-3-3-3----3-3-3-3-3-3-3-3-|-----3-3-3-3----3-3-3-3-3-3-3-3-|
-----3-3-3-3----2-2-2-2-2-2-2-2-|--------------------------------|--------------------------------|





--------------------------------|--------------------------------|--------------------------------|
--------------------------------|--------------------------------|--------------------------------|
--7----------7------------------|--------------------------------|--5----------5------------------|
--7----------7------------------|--5----------5------------------|--5----------5------------------|
-----5-5-5-5----5-5-5-5-5-5-5-5-|--5----------5------------------|-----3-3-3-3----3-3-3-3-3-3-3-3-|
--------------------------------|-----3-3-3-3----3-3-3-3-3-3-3-3-|--------------------------------|





--------------------------------|--------------------------------|--------------------------------|
--------------------------------|--------------------------------|--------------------------------|
--5----------5------------------|--7----------7------------------|--------------------------------|
--5----------5------------------|--7----------7------------------|--5----------5------------------|
-----3-3-3-3----3-3-3-3-3-3-3-3-|-----5-5-5-5----5-5-5-5-5-5-5-5-|--5----------5------------------|
--------------------------------|--------------------------------|-----3-3-3-3----3-3-3-3-3-3-3-3-|





--------------------------------|--------------------------------|--------------------------------|
--------------------------------|--------------------------------|--------------------------------|
--5----------5------------------|--5----------5------------------|--5----------5------------------|
--5----------5------------------|--5----------5------------------|--5----------5------------------|
-----3-3-3-3----3-3-3-3-3-3-3-3-|-----3-3-3-3----3-3-3-3-3-3-3-3-|-----3-3-3-3----3-3-3-3-3-3-3-3-|
--------------------------------|--------------------------------|--------------------------------|





--------------------------------|-------------------|-------------------|-------------------|
--------------------------------|--5----------------|-------------------|-------------------|
--7----------7------------------|--4----------------|----------5--------|--7----------------|
--7----------7------------------|-------------------|----------5--------|--5----------------|
-----5-5-5-5----5-5-5-5-5-5-5-5-|-------------------|-------------------|-------------------|
--------------------------------|-------------------|-------------------|-------------------|





-------------------|-------------------|-------------------|-------------------|-------------------|
-------------------|--5----------------|-------------------|-------------------|-------------------|
----------7--------|--4----------------|----------5--------|--7----------------|-------------------|
----------5--------|-------------------|----------5--------|--5----------------|----------7--------|
-------------------|-------------------|-------------------|-------------------|----------5--------|
-------------------|-------------------|-------------------|-------------------|-------------------|





-------------------|-------------------|-------------------|-------------------|-------------------|
--5----------------|-------------------|-------------------|-------------------|--5----------------|
--4----------------|----------5--------|--7----------------|----------7--------|--4----------------|
-------------------|----------5--------|--5----------------|----------5--------|-------------------|
-------------------|-------------------|-------------------|-------------------|-------------------|
-------------------|-------------------|-------------------|-------------------|-------------------|





-------------------|-------------------|-------------------|--------------------|-----------|
-------------------|-------------------|-------------------|--------------------|-----------|
----------5--------|--7----------------|-------------------|--------------------|-----------|
----------5--------|--5----------------|----------7--------|--------------------|--5--------|
-------------------|-------------------|----------5--------|--7--------9--------|--5--------|
-------------------|-------------------|-------------------|--7--------9--------|-----------|





-------------------|------------------|---------------------------------|-------------------|
-------------------|------------------|---------------------------------|-------------------|
-------------------|------------------|--4------------------------------|-------------------|
--7----------------|------------------|--4------------------------------|--7----------------|
--7----------------|------------------|-----2-2-2-2-2-2-2-2-2-2-2-2-2-2-|--7----------------|
-------------------|------------------|---------------------------------|-------------------|





------------------|--------------------|-------------------|------------------|
------------------|--------------------|-------------------|------------------|
------------------|--------------------|-------------------|------------------|
------------------|--5--------6--------|--7----------------|------------------|
------------------|--5--------7--------|--7----------------|------------------|
------------------|--------------------|-------------------|------------------|





---------------------------------|-------------------|------------------|--------------------|
---------------------------------|-------------------|------------------|--------------------|
--4------------------------------|-------------------|------------------|--------------------|
--4------------------------------|--7----------------|------------------|--5--------6--------|
-----2-2-2-2-2-2-2-2-2-2-2-2-2-2-|--7----------------|------------------|--5--------7--------|
---------------------------------|-------------------|------------------|--------------------|





-------------------|-------------------|------------------||--------------------|
-------------------|-------------------|------------------||--------------------|
-------------------|--4----------------|------------------||*--4----------------|
--7----------------|--4----------------|------------------||*--4----------------|
--7----------------|-------------------|------------------||--------------------|
-------------------|-------------------|------------------||--------------------|





-------------------|-------------------|--------------------||------|------|------|------|------|
-------------------|-------------------|--------------------||------|------|------|------|------|
-------------------|-------------------|-------------------*||------|------|------|------|------|
--5----------------|-------------------|--4----------------*||------|------|------|------|------|
--5----------------|--7----------------|--4-----------------||------|------|------|------|------|
-------------------|--7----------------|--------------------||------|------|------|------|------|





guitar solo



----------------------|---------------------|
-------------5--------|----------7b---3-----|
----------------------|---------------------|
--5---4---5-----------|------------------7--|
----------------------|---------------------|
----------------------|---------------------|





----------------------|------------------------------|---------3---------------|
----------------------|--8r-5-3-7b-5-3-5b-----4b-----|--5---------5-3----------|
----------------------|-------------------4-2----4-2-|----------------4-2------|
--5---4---------------|------------------------------|--------------------5----|
----------5-----------|------------------------------|-------------------------|
-------------3--------|------------------------------|-------------------------|





----------------------------------------------|--7-10-10-12-10-14-15-14-10-8-7-5-3~-------|
----------------------------------------------|-------------------------------------------|
----------------------------------------------|-------------------------------------------|
----------------------4-5-4-------------------|-------------------------------------------|
--2-5-5h7h5-2-5-5h7h5-------5-3-2---2-5-5h7h5-|-------------------------------------------|
----------------------------------5-----------|-------------------------------------------|





------------------------------------------|--15----------------|
----------------------------5-----------5-|--------------------|
----------------------4-7-7---7-4-7-5-7---|--------------------|
--------------------5---------------------|--------------------|
--2-5-5h7h5-2-5-5h7-----------------------|--------------------|
------------------------------------------|--------------------|







--------------------------------|--------------------------------|--------------------------------|
--------------------------------|--------------------------------|--------------------------------|
--5----------5------------------|--5----------5------------------|--7----------7------------------|
--5----------5------------------|--5----------5------------------|--7----------7------------------|
-----3-3-3-3----3-3-3-3-3-3-3-3-|-----3-3-3-3----3-3-3-3-3-3-3-3-|-----5-5-5-5----5-5-5-5-5-5-5-5-|
--------------------------------|--------------------------------|--------------------------------|





--------------------------------|--------------------------------|--------------------------------|
--------------------------------|--------------------------------|--------------------------------|
--------------------------------|--5----------5------------------|--5----------5------------------|
--5----------5------------------|--5----------5------------------|--5----------5------------------|
--5----------5------------------|-----3-3-3-3----3-3-3-3-3-3-3-3-|-----3-3-3-3----3-3-3-3-3-3-3-3-|
-----3-3-3-3----3-3-3-3-3-3-3-3-|--------------------------------|--------------------------------|





--------------------------------|--------------------------------|--------------------------------|
--------------------------------|--------------------------------|--------------------------------|
--7----------7------------------|--------------------------------|--5----------5------------------|
--7----------7------------------|--5----------5------------------|--5----------5------------------|
-----5-5-5-5----5-5-5-5-5-5-5-5-|--5----------5------------------|-----3-3-3-3----3-3-3-3-3-3-3-3-|
--------------------------------|-----3-3-3-3----3-3-3-3-3-3-3-3-|--------------------------------|





--------------------------------|--------------------------------|--------------------------------|
--------------------------------|--------------------------------|--------------------------------|
--5----------5------------------|--5----------5------------------|--7----------7------------------|
--5----------5------------------|--5----------5------------------|--7----------7------------------|
-----3-3-3-3----3-3-3-3-3-3-3-3-|-----3-3-3-3----3-3-3-3-3-3-3-3-|-----5-5-5-5----5-5-5-5-5-5-5-5-|
--------------------------------|--------------------------------|--------------------------------|





-------------------|-------------------|-------------------|-------------------|-------------------|
--5----------------|-------------------|-------------------|-------------------|--5----------------|
--4----------------|----------5--------|--7----------------|----------7--------|--4----------------|
-------------------|----------5--------|--5----------------|----------5--------|-------------------|
-------------------|-------------------|-------------------|-------------------|-------------------|
-------------------|-------------------|-------------------|-------------------|-------------------|





-------------------|-------------------|-------------------|-------------------|-------------------|
-------------------|-------------------|-------------------|--5----------------|-------------------|
----------5--------|--7----------------|-------------------|--4----------------|----------5--------|
----------5--------|--5----------------|----------7--------|-------------------|----------5--------|
-------------------|-------------------|----------5--------|-------------------|-------------------|
-------------------|-------------------|-------------------|-------------------|-------------------|





-------------------|-------------------|-------------------|-------------------|-------------------|
-------------------|-------------------|--5----------------|-------------------|-------------------|
--7----------------|----------7--------|--4----------------|----------5--------|--7----------------|
--5----------------|----------5--------|-------------------|----------5--------|--5----------------|
-------------------|-------------------|-------------------|-------------------|-------------------|
-------------------|-------------------|-------------------|-------------------|-------------------|





-------------------|--------------------|-------------------|-------------------|
-------------------|--7------------5----|--3----------------|--2----------------|
-------------------|--6------------6----|--2----------------|--2----------------|
----------7--------|--------------------|-------------------|-------------------|
----------5--------|--------------------|-------------------|-------------------|
-------------------|--------------------|-------------------|-------------------|





-------------------|--------------------|-------------------|-------------------|
----------2--------|--7------------5----|--3----------------|--2----------------|
----------2--------|--6------------6----|--2----------------|--2----------------|
-------------------|--------------------|-------------------|-------------------|
-------------------|--------------------|-------------------|-------------------|
-------------------|--------------------|-------------------|-------------------|





-------------------|--------------------|-------------------|-------------------|
----------2--------|--7------------5----|--3----------------|--2----------------|
----------2--------|--6------------6----|--2----------------|--2----------------|
-------------------|--------------------|-------------------|-------------------|
-------------------|--------------------|-------------------|-------------------|
-------------------|--------------------|-------------------|-------------------|





-------------------|--------------------|-------------------|-------------------|
----------2--------|--7------------5----|--3----------------|--2----------------|
----------2--------|--6------------6----|--2----------------|--2----------------|
-------------------|--------------------|-------------------|-------------------|
-------------------|--------------------|-------------------|-------------------|
-------------------|--------------------|-------------------|-------------------|





-------------------|-------------------||
----------2--------|--7----------------||
----------2--------|--6----------------||
-------------------|-------------------||
-------------------|-------------------||
-------------------|-------------------||





Rhythm Guitar during Guitar Solo



-------------------|-------------------|-------------------|
--5----------------|-------------------|-------------------|
--4----------------|----------5--------|--7----------------|
-------------------|----------5--------|--5----------------|
-------------------|-------------------|-------------------|
-------------------|-------------------|-------------------|




-------------------|-------------------|-------------------|-------------------|-------------------|
-------------------|--5----------------|-------------------|-------------------|-------------------|
----------7--------|--4----------------|----------5--------|--7----------------|-------------------|
----------5--------|-------------------|----------5--------|--5----------------|----------7--------|
-------------------|-------------------|-------------------|-------------------|----------5--------|
-------------------|-------------------|-------------------|-------------------|-------------------|

TOP cifras de Sonata Arctica

  1. Flag In The Ground
  2. The Misery
  3. Peacemaker
  4. The Last Amazing Grays
  5. Paid in Full
  6. San Sebastian
  7. Fullmoon
  8. Tallulah
  9. Letter to Dana
  10. Revontulet

Pela Web