Cifras Web
Sound City

From Can To Can't

Sound City

10 acessos

Intro e primeira parte:


E|----------------------------------------------------|
B|----------------------------------------------------|
G|---2------2------2------2------2------2------2------|
D|-----4------4------4------4------4------4------4----|
A|---------------0------2------5------4------3-----2--|
E|-2------4-------------------------------------------|


1º Refrão:


     D              E9        F#m    F#m/G# F#m/A  B7/9
E|---------------------------------------------------------------------|
B|--------5h7------------7-------2------2------2------0----------------|
G|------7-----7--------9-------2------2------2------2------------------|
D|----7---------7----9-------------------------------------------------|
A|--5--------------7------------------------------2--------------------|
E|---------------------------2------4------5---------------------------|


    D6           E9         F#m    F#m/G# F#m/A  B7/9
E|-------2-------------2--------------------------------------|
B|-----0---0---------5--------2------2------2------0----------|
G|---2-------2-----4--------2------2------2------2------------|
D|-0------------2---------------------------------------------|
A|--------------------------------------------2---------------|
E|------------------------2------4------5---------------------|  x3

TOP cifras de Sound City

  1. From Can To Can't

Pela Web