Cifras Web
South

Paint The Silence

South

10 acessos

Bassline is basically 

E -222222(s)555555(s)12,12,12,12,10,12,12- 

(s) equals slide 

Chords are 

B/F# (244200) 
A (x02220) 
E (022100) 

example is- 

B/F#         A               E
How can you say your life is empty, 

repeat   

(chorus is the same) 

Intro / Verse / Chorus [Chords]

e|-----2-----0-----0-----|
B|-----2-----2-----0-----|
G|-----2-----2-----1-----|
D|-----4-----2-----2-----|
A|-----4-----0-----2-----|
E|-----2-----0-----0-----|


Pre-chorus

e|-----------------------------------------------------|
B|-----------------5-----------3-----------------------|
G|-----2-----4-----------4-----------4-----2-----1-----|


Chorus

e|-----------------------------------------------------------------|
B|-----------------5-----------5-----------3-----------3-----5-----|
G|-----2-----4-----------4-----------4-----------4-----------------|



e|-----------------------------------------------------|
B|-----------------5-----------3-----------------------|
G|-----2-----4-----------4-----------4-----2-----1-----|



Intro + Verse + Chorus (Basically the whole song)

Guitar 1

g-----------------7 / 9--------------------------------------------------|
d---4-----7-------7 / 9--------------------------------------------------|
a---4-----7-------5 / 7--------------------------------------------------|
e---2-----5-------0 / 0--------------------------------------------------|

_____________________________________________________________________________

Guitar 2

Here's the little riff that comes during like the second verse
g-----------------9---------7-----------------------------------------------|
d--------7 / 9---------9---------9----7----6--------------------------------|
a---5-----------------------------------------------------------------------|
e---------------------------------------------------------------------------|

Then through the rest of the verse it's this several times.

g--------------9---------9---------7---------7--(sometimes he does 7h9)------|
d-------7/9---------9---------9---------9------------------------------------|
a----5-----------------------------------------------------------------------|
e----------------------------------------------------------------------------|


g-----------------9---------7-----------------------------------------------|
d--------7 / 9---------9---------9----7----6--------------------------------|
a---5-----------------------------------------------------------------------|
e---------------------------------------------------------------------------|


How can you say your life is empty
So late in the day
Why would you stay another second
Now your sight got in the way
A combination
Of love and aggression
Another second lived

Don't paint the silence black now save me
Don't leave it a day
You got a right to stand or die so maybe
You take chances all the same
Pain comes in stages
If we dont make it
Nothing changes

Now the violence sleeps inside
Abandoned feeling for just a piece of mind
It's the reason why your teething side frustrates me

Now the violence sleeps inside
Abandoned feeling for just a piece of mind
It's the reason why your teething side irates me

Dont leave me to pick up on your questions
Not even a day
It's alright to finish up your sentence
You talk all the same
Pain comes in stages if we don't make it
Nothing changes

TOP cifras de South

  1. Paint The Silence
  2. Paint The Silence Intro
  3. Colours In Waves
  4. You Are One
  5. Motiveless Crime
  6. What I Find

Pela Web