Cifras Web
South

What I Find

South

4 acessos

Tuning: 1/2 Down (Eb)

Intro: 

  ( Gm   Dm7  Cm7   C7(9)  Dm7 )
e|--5----8----5-----3------8----|
B|--3----6----4-----3------6----|
G|--3----5----3-----3------5----|
D|--5----7----5-----5------7----|
A|--5----5----3-----3------5----|
E|--3---------------------------|



e|-10~~---10~~---10~~---------------------10~~---10~~---10~~------
B|-----8~~----8~~----8~~-------10~-8~~--------8~~----8~~----8~~---
G|---------------------7~-------------------------------------7~--



e|-------------------------------------------------------
B|-3--4----3---4----------------------3------------------
G|------3--------3---3/-5-/-7\-3--------3----------------
D|---------------------------------5-----------7~---5~---



e|---------------------------------------|
B|-3--4----3---4-------------------------|
G|------3--------3---3/-5-/-7\-3--/7~~---|
D|---------------------------------------|



( Gm   Dm7  Cm7   C7(9)  Dm7 )
What  I find,   I know  is mine
It  describes,   feels  at times
Heave a  sigh,  open  wide
A  disguise,   to fuel   the fight..



e|------------------------------------------|
B|-11-11-\-10-10-\-8-8-\-6-6-\-6-6/-8-8-8~~-|
G|------------------------------------------|
D|------------------------------------------|



G|-----------------------------------------|
D|-----------------------------------------|
A|-10-10-\-8-8-\-6-6-\-5-5-\-3-3-/-5-5-5~~-|
E|-----------------------------------------|


( Gm   Dm7  Cm7   C7(9)  Dm7 )
Things  you  say,   can make   my day
But you're  paid,   to be   this way
A  real  fake,   but not   betrayed
Just  sustained,    now   deacayed

TOP cifras de South

  1. Paint The Silence
  2. Paint The Silence Intro
  3. Colours In Waves
  4. You Are One
  5. Motiveless Crime
  6. What I Find

Pela Web