Cifras Web
Spinal Tap

Lick My Love Pump

Spinal Tap

5 acessos

Transcribed by *

Gtr I (E A D G B E) - 'Piano Right Hand'
Gtr II (E A D G B E) - 'Piano Left Hand'
Gtr III (E A D G B E) - 'The Horn Part'

  Q=115
          Dm                    Bb
 1/4     4/4
  Gtr I
   E  E    H         Q   E  E    +E   H         Q.

|-------:-22--------20-----17-:-(17)-18--------17--------:
|----18-:---------------------:--------------------------:
|-19----:---------------19----:--------------------------:
|-------:---------------------:--------------------------:
|-------:---------------------:--------------------------:
|-------:---------------------:--------------------------:

|
| Gtr II
|  Q       Q   E  E  Q   E  E     Q      E  Q   E   E  E

|-------:-13------------------:--------------------------:
|-------:-15--------15--------:--15----------------------:
|-------:-14-----14-----14----:--15------------15--------:
|-------:-12--12-----------12-:--15--------15------15----:
|-------:---------------------:--13-----13------------13-:
|-------:---------------------:--------------------------:



                                 H.=H           Q=80H=H
  Am                             G5
                 |--3--|
   H         E   S  S  S  E  E    E  H           Q   E

|-12---------------------------:----10----------10--13--|
|-----------12--12-13-12-------:----------------10------|
|------------------------14-12-:-14-------------12------|
|------------------------------:------------------------|
|------------------------------:------------------------|
|------------------------------:------------------------|

|
|  Q   E  E  Q.              E    Q     E  E  E  Q   E

|------------------------------:------------------------|
|-13---------------------------:------------------------|
|-14--------14-----------------:-12-------------12------|
|-14-----14-14-----------------:-12-------12------------|
|-12--12----12--------------12-:-10----10----10-----10--|
|------------------------------:------------------------|



  Q=115                                          H.=H                  Q=80
  Dm                    Bb                       Am                G
   H         Q   E  E   +E  H         Q.          H       H          W

|-10---------8------5-:-(5)-6---------5--------:--0--------------:--10-----||
|---------------------:------------------------:-----------------:---------||
|----------------7----:------------------------:-----------------:---------||
|---------------------:------------------------:-----------------:---------||
|---------------------:------------------------:-----------------:---------||
|---------------------:------------------------:-----------------:---------||

|
|  Q   E  E  Q   E  E    Q     E  Q   E   E  E    Q   Q   Q   Q      W

|-13------------------:------------------------:-----------------:---------||
|-15--------15--------:-15---------------------:-13--------------:-^12-----||
|-14-----14-----14----:-15-----------15--------:-14------14------:-^12-----||
|-12--12-----------12-:-15-------15------15----:-14------14------:-^12-----||
|---------------------:-13----13------------13-:-12--12--12--12--:-^10-----||
|---------------------:------------------------:-----------------:---------||



 The "Horn" Part
  Q=100
  Dm            Bb           Am            G
   H     H       H    H       H     H       w

|-10----10----|--6----6----|-12----12----|-10----*|
|-10----10----|--6----6----|-13----13----|-------*|
|-10----10----|--5----5----|-------------|-------*|
|-------------|------------|-------------|-------*|
|-------------|------------|-------------|-------*|
|-------------|------------|-------------|-------*|

|
|  W             W            W             w

|-13----------|------------|-------------|-------*|
|-15----------|-15---------|-13----------|-12----*|
|-14----------|-15---------|-14----------|-12----*|
|-12----------|-15---------|-14----------|-12----*|
|-------------|-13---------|-12----------|-10----*|
|-------------|------------|-------------|-------*|

|
| Gtr III
|  W             H    H       W             w
|-------------|------------|-------------|-------*|
|-------------|------------|-------------|-------*|
|--7----------|--3---------|--2----------|--0----*|
|-------------|------------|-------------|-------*|
|-------------|------------|-------------|-------*|
|-------------|------------|-------------|-------*|

TOP cifras de Spinal Tap

  1. Stonehenge Intro
  2. Heavy Duty
  3. Nigels Solo
  4. Majesty Of Rock
  5. Gimme Some Money Solo
  6. Bitch School
  7. Hell Hole
  8. Stonehenge Solo
  9. Listen To The Flower People
  10. Rock And Roll Creation

Pela Web