Cifras Web
Spinal Tap

Rock And Roll Creation

Spinal Tap

6 acessos

This is the song where "Derek Smalls" gets caught in the pod.
this is most of the song except the solos and it wouldnt surprise me if i was wrong.



|---------------------------------------|
|---------------------------------------|
|---------------------------------------|
|----------------------(9)--------------|
|-14--------------/8\14(7)---------/5---|
|-12--------------/6\12------------/3---|




|-------------------|
|-------------------|
|-------------------|
|-------------------|
|--\8-8--------/14--|
|--\6-6--------/12--|




|---------------------------------|
|---------------------------------|
|---------------------------------|
|------9-----9--------------------|
|------7-----7---0---5-10-9-7-----|
|--x-x---x------------------------|x2




|--------------------------------------------|
|--------------------------------------------|
|--------------------------------------10-9-7|
|------9-----9------------------10-9-7-------|
|------7-----7---0---5---10-9-7--------------|
|--x-x---x-----------------------------------|


thats most of it atleast.

TOP cifras de Spinal Tap

  1. Stonehenge Intro
  2. Heavy Duty
  3. Nigels Solo
  4. Majesty Of Rock
  5. Gimme Some Money Solo
  6. Bitch School
  7. Hell Hole
  8. Stonehenge Solo
  9. Listen To The Flower People
  10. Rock And Roll Creation

Pela Web