Cifras Web
Spinal Tap

Tonight Im Gonna Rock You Tonight Solo

Spinal Tap

6 acessos

Tonight I'm gonna Rock You Tonight solos as on the Album!

tabbed by:Brian-Guitarist(BriantheFrancis)


I know the solos are pretty easy to tab, but for beginners it might help.

Solo 1:
Start with a bunch of 5-8fret hammerons and pulloffs on the high e string (a to c)

e|-8-8b10-------------------------------------------------------------|
B|--------8b10--------------------------------------------------------|
G|--------------7b9--5-7-5--7b9p5----7b9-7b9-7b9--7b9*-7b9*-7b9*-7b9*-|
D|--------------------------------7-----------------------------------|
A|--------------------------------------------------------------------|
E|--------------------------------------------------------------------|



e|----------------------------------------|
B|----------------------------------------|
G|-7b9--5-7-5-5-5-7b9p5-------------------|
D|----------------------7-----------------|
A|----------------------------------------|
E|----------------------------------------|


solo 2:

e|---------------------------------------------------|
B|-----------------------------------7b9-------------|
G|-7b9-p5--------5-5-7b9-7b9p5--------7b9-7b9p5---|
D|-----------7--7-7---------------7----------------7-|
A|---------------------------------------------------|
E|---------------------------------------------------|


solo 3:
start with a bunch of 5-8fret hammerons and pulloffs on the high e string (a-c)then 
up to 7-10 hammerons and pulloffs (b to d) then slide to
8-11 hammerons and pulloffs (c-d#) then slide back down

e|----------------------------------------|
B|----------------------------------------|
G|-7b9--7b9-7b9--5--765-765-765---5-------|
D|------------------------------7---7-----|
A|----------------------------------------|
E|----------------------------------------|

*piano break*

Solo 4:

e|------------------------10---8-8-7-7-7------------------|
B|-8b10--8b10-----------------------------10-10-10-10-----|
G|-------------5-7-5-7------------------------------------|
D|---------------------7----------------------------------|
A|--------------------------------------------------------|
E|--------------------------------------------------------|


There they are. Theres already a good tab for the normal song that i commented on, i'd 
change the intro to all power chords.

heres what the symbols mean:
b.........................................bend (the number that follows is the fret 
that you bend to)
h.........................................hammeron (i don't think i have this symbol 
in here)
p.........................................pulloff
.......................................pinch harmonic
*.........................................simi-harmonic (light touch of thumb on note)

This whole song is really cool. It surprised me when this came up on a comedy music movie.

Rock on!!!

TOP cifras de Spinal Tap

  1. Stonehenge Intro
  2. Heavy Duty
  3. Nigels Solo
  4. Majesty Of Rock
  5. Gimme Some Money Solo
  6. Bitch School
  7. Hell Hole
  8. Stonehenge Solo
  9. Listen To The Flower People
  10. Rock And Roll Creation

Pela Web