Cifras Web
Splinter

Three Dumb Fighters

Splinter

12 acessos

Tabbed by Kieron Sutton


*. I'll send ya a copy of it FREE of charge. Rock on.

Tuning: Standard (EBGDAE)

Intro

e|-------------------------------------------------------------------------|
B|-------------------------------------------------------------------------|
G|-------------------------------------------------------------------------|
D|-------------------------------------------------------------------------|
A|-2-2-0-0-0-0-0-0-0-0-0-0-0-0-0-0-0-0-0-3-3-3-3-3-3-3-3-8-8-8-8-5-5-5-5---|
E|-0-0-0-0-0-0-0-0-0-0-0-0-0-0-0-0-0-0-0-3-3-3-3-3-3-3-3-8-8-8-8-5-5-5-5---|




e|-------------------------------------------------------------------------|
B|-------------------------------------------------------------------------|
G|-------------------------------------------------------------------------|
D|-------------------------------------------------------------------------|
A|-0-0-0-0-0-0-0-0-3-3-3-3-3-3-3-3-8-8-8-8-5-5-5-5-------------------------|
E|-0-0-0-0-0-0-0-0-3-3-3-3-3-3-3-3-8-8-8-8-5-5-5-5-------------------------|


Main Riff

e|-------------------------------------------------------------------------|
B|-------------------------------------------------------------------------|
G|-------------------------------------------------------------------------|
D|-------------------------------------------------------------------------|
A|-2-2-5-5-5-5-5-5-2-2-7-7-7-7-7-7-2-2-5-5-5-5-5-5-10-10-7-7-7-7-7-7-------|
E|-0-0-3-3-3-3-3-3-0-0-5-5-5-5-5-5-0-0-3-3-3-3-3-3-8- 8--5-5-5-5-5-5-------|


Verse Riff

e|-------------------------------------------------------------------------|
B|-------------------------------------------------------------------------|
G|-------------------------------------------------------------------------|
D|-------------------------------------------------------------------------|
A|-2-2-2-2-2-2-2-2-2-2-9-9-9-8-8-7-7-7-6-5-5-5-5-5-------------------------|
E|-0-0-0-0-0-0-0-0-0-0-7-7-7-6-6-5-5-5-4-3-3-3-3-3-------------------------|


Chorus

e|-------------------------------------------------------------------------|
B|-------------------------------------------------------------------------|
G|-------------------------------------------------------------------------|
D|-------------------------------------------------------------------------|
A|-5-5-5-5-5-7-7-7-7-7-10-10-10-10-10-7-7-7-7-7----------------------------|
E|-3-3-3-3-3-5-5-5-5-5-8- 8- 8- 8- 8- 5-5-5-5-5----------------------------|


Bridge

e|-------------------------------------------------------------------------|
B|-------------------------------------------------------------------------|
G|-------------------------------------------------------------------------|
D|-------------------------------------------------------------------------|
A|-------------------------------------------------------------------------|
E|-3-3-3-0-0-0-8-8-8-5-5-5-------------------------------------------------|


Bridge Heavy
e|-------------------------------------------------------------------------|
B|-------------------------------------------------------------------------|
G|-------------------------------------------------------------------------|
D|-------------------------------------------------------------------------|
A|-5-5-5-2-2-2-10-10-10-7-7-7----------------------------------------------|
E|-3-3-3-0-0-0-8- 8- 8- 5-5-5----------------------------------------------|

TOP cifras de Splinter

  1. Three Dumb Fighters
  2. All About Me
  3. Mesmo Eu
  4. 20 anos
  5. Lembranças

Pela Web