Cifras Web
Stars

Ageless Beauty

Stars

9 acessos

dunno if its right if not.. let me know

Tabbed By: Ken Montgomery
E-mail: *

Standard Tuning: E A D G B E


Intro/verse

e-------------------------------------------------------|
B-------------------------------------------------------|
G-------------------------------------------------------|
D--13-13-13-13-13-13-13-13---13-13-13-13-13-13-13-13----|
A|-13-13-13-13-13-13-13-13---13-13-13-13-13-13-13-13----|
E--11-11-11-11-11-11-11-11---10-10-10-10-10-10-10-10----|



e---------------------------------------------------------------------|
B---------------------------------------------------------------------|
G---------------------------------------------------------------------|
D--10-10-10-10-10-10-10-10-10-10-10-10---8-8-8-8--6-6-6-6-6-6-6-6-----|
A--10-10-10-10-10-10-10-10 10-10-10-10---8-8-8-8--6-6-6-6-6-6-6-6-----|
E--8--8--8--8--8--8--8--8--8--8--8--8----6-6-6-6--4-4-4-4-4-4-4-4-----|



e---------------------------------------------------------------------|
B---------------------------------------------------------------------|
G---------------------------------------------------------------------|
D--5-5-5-5-5-5-5-5-----8-8-8-8-8-8-8-8-8-8-8-8-8-8--------------------|
A--5-5-5-5-5-5-5-5-----8-8-8-8-8-8-8-8-8-8-8-8-8-8--------------------|
E--3-3-3-3-3-3-3-3-----6-6-6-6-6-6-6-6-6-6-6-6-6-6--------------------|


Chorus (Play each 4 times)

e---------------------------------------------------------------------|
B---------------------------------------------------------------------|
G--13---------13-13-13-13-13-13-13-13-13-13-13-13-13-13---------------|
D--13--/Rake--13-13-13-13-13-13-13-13-13-13-13-13-13-13---------------|
A--11---------11-11-11-11-11-11-11-11-11-11-11-11-11-11---------------|
E--11-----------------------------------------------------------------|



e---------------------------------------------------------------------|
B---------------------------------------------------------------------|
G---------------------------------------------------------------------|
D--13-13-13-13-13-13-13-13-13-13-13-13-13-13--------------------------|
A--13-13-13-13-13-13-13-13-13-13-13-13-13-13--------------------------|
E--11-11-11-11-11-11-11-11-11-11-11-11-11-11--------------------------|



after second chorus the keyboard plays this.. just have to figure out the rythm

e---------------------------------------------------------------------|
B---------------------------------------------------------------------|
G---12b-12b-12b-12b-12b-12b-12b-12b-12b---- etc-----------------------|
D---------------------------------------------------------------------|
A---------------------------------------------------------------------|
E---------------------------------------------------------------------|


Outro- continue chorus the keyboard is playing this. you can fool around with it.. hold 
or double pick it really fast
e-------------------------------------------------------------------------|
B-------------------------------------------------------------------------|
G---13-12---13-12-4times--------------------------------------------------|
D--------13---------------------------------------------------------------|
A-------------------------------------------------------------------------|
E-------------------------------------------------------------------------|

TOP cifras de Stars

  1. Life Effect
  2. Night Starts Here
  3. Elevator Love Letter
  4. Big Fight
  5. Set Yourself On Fire
  6. Ageless Beauty
  7. Dont Be Afraid To Sing
  8. Soft Revolution
  9. Reunion
  10. Take Me To The Riot

Pela Web