Cifras Web
Stars

Window Bird

Stars

8 acessos

(Tabbed by w7w7w7)


chorus and in the ending of this song. This tab has only the main parts, you
should be able to figure out the variations by yourself if you want to.



Verse
G|-----------------------------------------------------------------------|
D|-----------------------------------------------------------------------|
A|-8-8-8-8-8-8-8-8-----------------8-8-8-8-8-8-8-8-----------------------| x6
E|-----------------6-6-6-6-6-6-6-6-----------------5-5-5-5-5-5-5-5-------|

G|--------------------------------------------------|
D|--------------------------------------------------|
A|-8-8-8-8-8-8-8-8-----------------8-8-8-8-8-8-8-8--|
E|-----------------6-6-6-6-6-6-6-6------------------|



Chorus x2
G|-----------------------------------------------------------------------|
D|-----------------8-8-8-8-------7-5-------------------------------------|
A|-5-5-----8-8---8---------10-10-----8-7---------------------------------|
E|-----------------------------------------------------------------------|

G|-----------------------------------------------------------------------|
D|-----------------------------------------------------------------------|
A|-5-5-5-5-----------------888/10----------------------------------------|
E|---------8-8-8-5-6-6-6-6-----------------------------------------------|



Verse #2
G|-----------------------------------------------------------------------|
D|-----------------------------------------------------------------------|
A|-8-8-8-8-8-8-8-8-----------------8-8-8-8-8-8-8-8-----------------------| x7
E|-----------------6-6-6-6-6-6-6-6-----------------5-5-5-5-5-5-5-5-------|

G|-------------------------------------------------7-5-------------------|
D|-----------------------------------------------------7-3-4-------------|
A|-8-8-8-8-8-8-8-8-----------------8-8-8-8-8-8-8-8-----------------------|
E|-----------------6-6-6-6-6-6-6-6---------------------------------------|


Chorus x4


End x3
G|-----------------------------------------------------------------------|
D|-----------------------------------------------------------------------|
A|-------1/4---4------6---6----7----7------------------------------------|
E|-1---1------6-6-------------8----8-8/----------------------------------|

G|-----------------------------------------------------------------------|
D|-----------------------------------------------------------------------|
A|---------4---4---------------------------------------------------------|
E|-1---1--6---6-6-----6---6---4---3--------------------------------------|

G|-----------------------------------------------------------------------|
D|-----------------------------------------------------------------------|
A|---------4---4------6---6----7----7------------------------------------|
E|-1---1--6---6-6-------------8----8-8/----------------------------------|

G|-----------------------------------------------------------------------|
D|-----------------------------------------------------------------------|
A|-----------------------------------------------------------------------|
E|-5-5-5-5-6-6-6-6-10-10-10-10-9-9-9-5-1---------------------------------|

TOP cifras de Stars

  1. Life Effect
  2. Night Starts Here
  3. Elevator Love Letter
  4. Big Fight
  5. Set Yourself On Fire
  6. Ageless Beauty
  7. Dont Be Afraid To Sing
  8. Soft Revolution
  9. Reunion
  10. Take Me To The Riot

Pela Web