Cifras Web
Steel Panther

Death To All But Metal

Steel Panther

15 acessos

Afinação:Meio Tom Abaixo


E |---------------------------------------------------------------------------|
B |---------------------------------------------------------------------------|
G |-----5-----5-----5-----5-----5--7--8---------------------------------------|
D |-----5-----5-----5-----5-----5--7--8---------------------------------------|
A |-0000--0000--0000--0000--0000-0--0-----------------------------------------|
E |---------------------------------------------------------------------------|


riff 1 part 1
x3

E |-----------------|
B |-----------------|
G |-----------------|
D |-----------------|
A |-------0-1-0-----|
E |-0-0-3-------3---|


riff 1 part 2
x1

E |----------------|
B |----------------|
G |----------------|
D |-------2--------|
A |-0-1-2---1-0----|
E |-------------3--|


altogether riff 1 is done x4

Guitar solo on the second time riff 1 is played:

E |-/-------------------------|-12p10----------------------------------------|
B |-/--------------------15~--|-------10p12----------------------------------|
G |-/(whammy bar down-)-------|----------------------------------------------|
D |---------------------------|----------------------------------------------|
A |---------------------------|----------------------------------------------|
E |---------------------------|----------------------------------------------|

                               ^repeat very quickly a few times
riff 1 x2

pre-chorus

guitar 1
Do this 4 times over guitar 2's part, done once.

E |---------------17----16----------------------------------------------------|
B |-----17-15-----------------------------------------------------------------|
G |-16~-------16-----16---16--------------------------------------------------|
D |---------------------------------------------------------------------------|
A |---------------------------------------------------------------------------|
E |---------------------------------------------------------------------------|


guitar 2

E |---------------------------------------------------------------------------|
B |---------------------------------------------------------------------------|
G |------------5~---7~--------------------------------------------------------|
D |--2~---5~---5~---7~--------------------------------------------------------|
A |--2~---5~---3~---5~--------------------------------------------------------|
E |--0~---3~------------------------------------------------------------------|


chorus x2

E |------------------------------------------|
B |------------------------------------------|
G |-8~--7~-5~------5-----5-----5-----5-------|
D |-8~--7~-5~------5-----5-----5-----5-------|
A |-6~--5~-3~--0000--0000--0000--0000--------|
E |------------------------------------------|


solo on the end of second time of chorus

E |-15^(16)~-----------------------------------------------------------------|
B |--------------------------------------------------------------------------|
G |--------------------------------------------------------------------------|
D |----------7p6h7p6h7p6h7p6-7~----------------------------------------------|
A |--------------------------------------------------------------------------|
E |--------------------------------------------------------------------------|


end chorus x1

E |------------------------------------------|
B |------------------------------------------|
G |-8~--7~-5~------5---7---8-----------------|
D |-8~--7~-5~------5---7---8-----------------|
A |-6~--5~-3~--0000--0--0--------------------|
E |------------------------------------------|


riff 1 x2
pre-chorus x1

Pre-chorus 2 x2

E |----------------------|
B |----------------------|
G |---9-7---7------------|
D |-------9---9-7--------|
A |---------------10-7---|
E |----------------------|


chorus x2
chorus solo:


E |-----------------|
B |-----------------|
G |--7/8-7-5-7-5-2--|
D |--7/8-7-5-7-5-2--|
A |-----------------|
E |-----------------|


bridge x1

E |----------------------------------|
B |-----------------4h5p4---4h5p4----|
G |-11~--4~--9~--4~-------4-------4--|
D |-11~--4~--9~--4~------------------|
A |-9~---2~--7~--2~------------------|
E |----------------------------------|



E |----------------------------------|
B |----------------------------------|
G |------4~--5~-----8-7--------------|
D |--4~--4~--5~--5~-8-7--------------|
A |--4~--2~--3~--5~-6-5--------------|
E |--2~----------3~------------------|


guitar solo over last part of bridge

E |----------------------------------|
B |-17---15~--13-15---13~-14---------|
G |---16------------0----------------|
D |----------------------------------|
A |----------------------------------|
E |----------------------------------|


Guitar solo:

E |-19^(21)-19^(21)-19^(21)-17^(18)-------17-19-17----------------------------|
B |---------------------------------16-18----------18-------------------------|
G |---------------------------------------------------------------------------|
D |---------------------------------------------------------------------------|
A |---------------------------------------------------------------------------|
E |---------------------------------------------------------------------------|


riff 1 x2
pre-chorus
chorus x2


E |--------------------------------------|
B |-----------8~-------------------------|
G |-7-7~--7~-----11~------------2-2------|
D |-7-7~------------------------2-2------|
A |-5-5~------------------------0-0------|
E |--------------------------------------|


| /  slide up
| \  slide down
| h  hammer-on
| p  pull-off
| ~  vibrato
| +  harmonic
| x  Mute note

Death To All But Metal   \,,/

TOP cifras de Steel Panther

  1. Community Property
  2. Girl From Oklahoma
  3. Stripper Girl
  4. Death To All But Metal
  5. The Stocking Song
  6. Pussywhipped
  7. If You Really Really Love Me

Pela Web