Cifras Web
Steelheart

Electric Chair

Steelheart

15 acessos

Riff principal/Introdução/Versos


E|--4---5---6---7---------|
B|--5---5---5---5---------|
G|--6---6---6---6---------|
D|------------------------|
A|------------------------|
E|------------------------|


Pré Refrão

E|------------------------|
B|--7---7---7---7---------|
G|--6---5---3---5---------|
D|--4---4---4---4---------|
A|------------------------|
E|------------------------|


Refrão

C#  E  B  A

OBS: Ouça a música para pegar o tempo certo

TOP cifras de Steelheart

  1. Shes Gone
  2. Electric Chair
  3. I'll Never Let You Go
  4. My Love Is Gone

Pela Web