Cifras Web
Steve Hackett

Vampyre With A Healthy Appetite Intro

Steve Hackett

4 acessos

///////////////////////////////////////////////
/                                             /
/    Sonic da hedgehogs got a tune for ya!    /
/                                             /
///////////////////////////////////////////////

Nobody put in this tune so here ya go!
Vampyre with a healthy appetite
Nobody came out with this one (for i don't know what reason) 
So I made my version......
By: Mathew P.


Intro 

E[-------------0----------------18-12-18-12-18-12-18-12---]
B[-------------0----------------18-12-18-12-18-12-18-12---]
G[--------------------------------------------------------]
D[--------------------------------------------------------]
A[-----------0--------------------------------------------]
E[-----------0--------------------------------------------]


E[--------------------------------------------------------]
B[--------------------------------------------------------]
G[-----7---7---6---5---5---4---7---7---6---3---3---4------]
D[-----5---5---4---3---3---2---5---5---4---1---1---2------]
A[--------------------------------------------------------]
E[--------------------------------------------------------]

TOP cifras de Steve Hackett

  1. Hands Of The Priestess
  2. Darktown
  3. Cast Adrift
  4. Every Day Intro
  5. Horizons
  6. Kim
  7. Narnia
  8. Petropolis
  9. Lovers
  10. Variations On A Theme By Chopin

Pela Web