Cifras Web
Street Dogs

Common People

Street Dogs

4 acessos

Intro				I’m tired of American....

|-----------------------------------------------------------------|
|-----------------------------------------------------------------|
|------10--------10---------10---------10-------------------------|
|-10-8-1010-10-8-10-10-10-8-10-10-10-8-10-10----------------------|
|-10-8-8-10-10-8-8--10-10-8-8--10-10-8-8--10----------------------|
|-8--6---8--8--6----8--8--6----8--8--6----8-----------------------|


Verse
I don’t care about...     Wanna sing for all the angry...

|-----------------------------------------------------------------|
|-----------------------------------------------------------------|
|-55555-------33333-------55555-------33333-----------------------|
|-55555-55555-33333-33333-55555-55555-33333-33333-----------------|
|-33333-55555-11111-33333-33333-55555-11111-33333-----------------|
|-------33333-------11111-------33333-------11111-----------------|

These are things...	  See so many faults...

|-----------------------------------------------------------------|
|-----------------------------------------------------------------|
|-55555-------33333-------55555-------33333-----------------------|
|-55555-55555-33333-33333-55555-55555-33333-33333-----------------|
|-33333-55555-11111-33333-33333-55555-11111-33333-----------------|
|-------33333-------11111-------33333-------11111-----------------|


 Harmonics (33)  2X
 We have had had enough…..

|--------------------------------------------------------------------|
|--------------------------------------------------------------------|
|------5------5------5---55------------------------------------------|
|------5------5------5---55--33333333--------------------------------|
|--33--3--33--3--33--3---33--33333333--------------------------------|
|----------------------------11111111--------------------------------|


  This is a battle cry...

|-------------------------------------------------------------------|
|-------------------------------------------------------------------|
|--55555-33333----------55555-33333-8888888-------------------------|
|--55555-33333-333333-5-55555-33333-8888888-------------------------|
|--33333-11111-333333-5-33333-11111-6666666-------------------------|
|--------------111111-3---------------------------------------------|


Repeat as necessary
Listen to the song to get the exact number of times and amount of time you play each 
for.

TOP cifras de Street Dogs

  1. Back To The World
  2. Fatty Solo
  3. Savin Hill
  4. Tobes Got A Drinking Problem Intro
  5. Hard Luck Kid
  6. Drink Tonight
  7. Not Without A Purpose
  8. Pull The Pin
  9. Fighter
  10. Strike A Blow Intro

Pela Web