Cifras Web
Street Dogs

Fatty

Street Dogs

4 acessos

Album: Fading American Dream

Intro:
Guitar #1

-------------------------------------------|
---7-8-7-5-7-5-----------------------------|
---7-7-7-7-7-7-(x3)---7--------------------|
----------------------7---(let ring out)---| x2
-------------------------------------------|
-------------------------------------------|


Guitar #2

----------------------------------------|
----------------------------------------|
---7--------------------7---------------|
---7-x8---4------5------7-x4---7--------| x2
---5------4-x8---5-x8---5------7--x4----|
----------2------3-------------5--------|



Verse:

----------------------------------------|
----------------------------------------|
---7--------------------7---------------|
---7-x8---4------5------7-x4---7--------| x2
---5------4-x8---5-x8---5------7-x4-----|
----------2------3-------------5--------|



Chorus:
----------------------------------------|
----------------------------------------|
-----------7--------------7-------------|
---7---5---7---7---5------7-x8----------| x2
---7---5---5---7---5-x8---5-------------|
---5---3-------5---3--------------------|

TOP cifras de Street Dogs

  1. Back To The World
  2. Fatty Solo
  3. Savin Hill
  4. Tobes Got A Drinking Problem Intro
  5. Hard Luck Kid
  6. Drink Tonight
  7. Not Without A Purpose
  8. Pull The Pin
  9. Fighter
  10. Strike A Blow Intro

Pela Web