Cifras Web
Street Dogs

Not Without A Purpose

Street Dogs

5 acessos

Fading American Dream
Not Without a Purpose

Intro/Chorus/Bridge:
--------------------------------------------------------------------|
-------------------------2-5-3-2-0---2---2--------------------------|
---3-3-3-3---------3-3-3-----------3---0-------3-3-3-3----3---3-3---|
-----------1-1-1-1-------------------------1-1---------3-3--3-------|


Verse:
-------------------------------------|
-------------------------------------|
---3-3-3-3---------0-0-3-3-----------| x2
-----------3-3-3-3---------1-1-1-1---|

Pre-Chorus:
-------------------------------------|
---------------------------5-3-2-0---|
-----------------------2-5-----------|
---3-3-3-3-3-3-3-3-3-3---------------|


Bridge 2:
-------------------------------------|
-------------------------------------|
---3-3-3-3---------------------------|
-----------0-0-0-0-1-1-1-1-3-3-3-3---|


--------------------------------------|
-----------2-2-2-2--------------------|
---3-3-3-3----------------------------| x2
-------------------1-1-1-1-3-3-3-3----|

TOP cifras de Street Dogs

  1. Back To The World
  2. Fatty Solo
  3. Savin Hill
  4. Tobes Got A Drinking Problem Intro
  5. Hard Luck Kid
  6. Drink Tonight
  7. Not Without A Purpose
  8. Pull The Pin
  9. Fighter
  10. Strike A Blow Intro

Pela Web