Cifras Web
Street Dogs

Tobes Got A Drinking Problem Intro

Street Dogs

7 acessos

Fading American Dream
Tobe's Got a Drinking Problem


Intro:

---2-2-2-2-2-2-2-2-3-3-3-3-3-3-3-3-2-2-2-2---------2-2-2-2-3-2-0-2---|
---3-3-3-3-3-3-3-3-3-3-3-3-3-3-3-3-3-3-3-3-2-2-2-2-3-3-3-3-3-3-3-3---|
---2-2-2-2-2-2-2-2-0-0-0-0-0-0-0-0-2-2-2-2-2-2-2-2-2-2-2-2-2-2-2-2---|
---0-0-0-0-0-0-0-0-0-0-0-0-0-0-0-0-0-0-0-0-2-2-2-2-0-0-0-0-0-0-0-0---|
-------------------x-x-x-x-x-x-x-x---------0-0-0-0-------------------|
-------------------3-3-3-3-3-3-3-3-----------------------------------|



---2-2-2-2-2-2-2-2-3-3-3-3-3-3-3-3-2-2-2-2-3-2-0-2---------------------------|
---3-3-3-3-3-3-3-3-3-3-3-3-3-3-3-3-3-3-3-3-3-3-3-3-2-2-2-2-3-2-0-2-----------|
---2-2-2-2-2-2-2-2-0-0-0-0-0-0-0-0-2-2-2-2-2-2-2-2-2-2-2-2-2-2-2-2-----------|
---0-0-0-0-0-0-0-0-0-0-0-0-0-0-0-0-0-0-0-0-0-0-0-0-2-2-2-2-2-2-2-2-----------|
-------------------x-x-x-x-x-x-x-x-----------------0-0-0-0-0-0-0-0-----------|
-------------------3-3-3-3-3-3-3-3-------------------------------------------|



---2-2-2-2-2-2-2-2-3-3-3-3-3-3-3-3-2-2-2-2-----------|
---3-3-3-3-3-3-3-3-3-3-3-3-3-3-3-3-3-3-3-3-2-2-2-2---|
---2-2-2-2-2-2-2-2-0-0-0-0-0-0-0-0-2-2-2-2-2-2-2-2---|
---0-0-0-0-0-0-0-0-0-0-0-0-0-0-0-0-0-0-0-0-2-2-2-2---|
-------------------------------------------0-0-0-0---|
-----------------------------------------------------|



---------------------------------------------------------------|
---7-7-7-7-8-8-8-8-7-7-7-7-5-5-5-5-7-7-7-7-8-8-8-8-------------|
---7-7-7-7-7-7-7-7-7-7-7-7-7-7-7-7-7-7-7-7-7-7-7-7-------------|
---------------------------------------------------------------|
---------------------------------------------------7-7-7-7-7---| x2
---------------------------------------------------7-7-7-7-7---|

---------------------------------------------------5-5-5-5-5---|

TOP cifras de Street Dogs

  1. Back To The World
  2. Fatty Solo
  3. Savin Hill
  4. Tobes Got A Drinking Problem Intro
  5. Hard Luck Kid
  6. Drink Tonight
  7. Not Without A Purpose
  8. Pull The Pin
  9. Fighter
  10. Strike A Blow Intro

Pela Web