Cifras Web
Street Dogs

You Alone

Street Dogs

3 acessos

Back to the World


Eb Ab Db Gb Bb eb


Intro:

------------------------------------------------|
------------------------------------------------|
---------9----12-12-------------9----12-12-12---|
---12-12-9----12-12-12----12-12-9----12-12-12---|
---12-12-7----10-10-12----12-12-7----10-10-10---|
---10-10------------10----10-10-----------------|


Intro 2:
-------|
-------|
---7---|
---7---|
---5---| x32
-------|


Verse:

---------------------------------------------------------------------|
---------------------------------------------------------------------|
---7-7-7-7-----------------------------------------------------------|
---7-7-7-7-7-7-7-7-5-5-5-5-2-2-2-2-4-4-4-4-5-5-5-5-7-7-7-7-7-7-7-7---|
---5-5-5-5-7-7-7-7-5-5-5-5-2-2-2-2-4-4-4-4-5-5-5-5-7-7-7-7-7-7-7-7---| x2
-----------5-5-5-5-3-3-3-3-0-0-0-0-2-2-2-2-3-3-3-3-5-5-5-5-5-5-5-5---|

   pm............................................................pm

Pre-Chorus:

-------------------------------------|
-------------------------------------|
-------------------------------------|
---5-5-5-5-5-5-5-5-7-7-7-7-7-7-7-7---|
---5-5-5-5-5-5-5-5-7-7-7-7-7-7-7-7---|
---3-3-3-3-3-3-3-5-5-5-5-5-5-5-5-5---|



Chorus:
---------------------|
---------------------|
---7-7-----4-4-------|
---7-7-7-7-4-4-5-5---|
---5-5-7-7-2-2-5-5---| x4
-------5-5-----3-3---|

TOP cifras de Street Dogs

  1. Back To The World
  2. Fatty Solo
  3. Savin Hill
  4. Tobes Got A Drinking Problem Intro
  5. Hard Luck Kid
  6. Drink Tonight
  7. Not Without A Purpose
  8. Pull The Pin
  9. Fighter
  10. Strike A Blow Intro

Pela Web