Cifras Web
Subhumans

Dying World

Subhumans

7 acessos

for comments: * or on my UG profile (lavazza)

Verse:

e:----------------|
b:----------------|
g:----------------|
d:x-x-9-9-x-x-7-7-|
a:x-x-9-9-x-x-7-7-|
e:x-x-7-7-x-x-5-5-|



There's a hole at the bottom of the earth
Where the blood pours out at the end of the day
When the usual amount of people have died
Sit back and watch the death and decay

Chorus:

e:---------------------------|
b:---------------------------|
g:----------------------..---|
d:14---14-14-12---12-12-14---|
a:14---14-14-12---12-12-14---|
e:12---12-12-10---10-10-12---|


It's a dying world


e:--------------------------------------------|
b:--------------------------------------------|
g:--------------------------------------------|
d:14---14-14-12---12-12-14---14-14-12---12-12-|
a:14---14-14-12---12-12-14---14-14-12---12-12-|
e:12---12-12-10---10-10-12---12-12-10---10-10-|



e:--------------------------------------------|
b:--------------------------------------------|
g:--------------------------------------------|
d:14---14-14-13---13-13-15---15-15-13---13-13-|
a:14---14-14-13---13-13-15---15-15-13---13-13-|
e:12---12-12-11---11-11-13---13-13-11---11-11-|



e:--------------------------------------------|
b:--------------------------------------------|
g:--------------------------------------------|
d:15---15-15-13---13-13-14---14-14-12---12-12-|
a:15---15-15-13---13-13-14---14-14-12---12-12-|
e:13---13-13-11---11-11-12---12-12-10---10-10-|



e:--------------------------------------------|
b:--------------------------------------------|
g:--------------------------------------------|
d:14---14-14-12---12-12-14---14-14-13---13-13-|
a:14---14-14-12---12-12-14---14-14-13---13-13-|
e:12---12-12-10---10-10-12---12-12-11---11-11-|



e:--------------------------------------------|
b:--------------------------------------------|
g:--------------------------------------------|
d:15---15-15-13---13-13-15---15-15-13---13-13-|
a:15---15-15-13---13-13-15---15-15-13---13-13-|
e:13---13-13-11---11-11-13---13-13-11---11-11-|


Verse
When you're living in a dying world
Panicking becomes the everyday thing
Buy up the food, the power and the guns
Get used to the threat of the final fling

It's a dying world

Verse
There's a hole in your mind where nothing exists
Except fear and loathing of the strange but true
Facts that defy your inner intelligence
Like man kills himself for something to do

It's a dying world

It fades out with playing the chorus again and again

TOP cifras de Subhumans

  1. Not Me
  2. Work Experience
  3. Big Brother
  4. Germ
  5. Dying World
  6. No
  7. Ashtray Dirt
  8. Wake Up Screaming
  9. Big City
  10. Religious Wars

Pela Web