Cifras Web
Subhumans

New Age

Subhumans

5 acessos

for comments * or on my UG profile (lavazz)


e:--------------|
b:--------------|
g:9-9-9-9-------|3x
d:9-9-9-9-------|
a:7-7-7-7-------|
e:--------------|


Verse

e:------------------|
b:------------------|
g:9-9-----11-11-9-9-|
d:9-9-9-9-11-11-9-9-|
a:7-7-9-9-09-09-7-7-|
e:----7-7-----------|


So you're living in fast world
See the people you've already killed
See what you've done with that machine of yours
You can't justify it, you ain't got a cause

Chorus
B                                      A   B
It's only cos we're living in a new age
B                                                   A   B
You don't know what you're like when you're in a rage
A                                    G   A
They're gonna put you away in a cage
A                                    G   A
You better start to act your age
A                                    B
You better start to act your age

Verse
Victims running, they are screaming
Living nightmares, they're not dreaming
They're too scared to walk the streets
The one with a gun they're afraid to meet

Chorus


e:--------------------------------------/13-13131313-12-----|
b:-------------------------------------------------------13-|
g:---7--9-7---7----7--777b-bbb-7---7------------------------|
d:9-9-9-----9---9-9-9------------9---9----------------------|
a:----------------------------------------------------------|
e:----------------------------------------------------------|


You know you're killing off the race
They'll lock you away and change your face
Hatred of the new age turned your mind
Can't bear to live with the rest of mankind

Chorus

TOP cifras de Subhumans

  1. Not Me
  2. Work Experience
  3. Big Brother
  4. Germ
  5. Dying World
  6. No
  7. Ashtray Dirt
  8. Wake Up Screaming
  9. Big City
  10. Religious Wars

Pela Web