Cifras Web
Sugarcult

How Does It Feel Intro

Sugarcult

8 acessos

This is how the song is really played.
I play this a lot and perfected myself at it so it matches the music, and if you want to
argue about that then i suggest you listen to the song agian... 

Email at * to thank me. -Danny

*Standard Tuning*

Intro

Start Riff        Main1
|--------------| |-------------------------------------|
|--------------| |------------------------/10--10------|
|--------------| |-8-8-8---8-8-8---8-8-8--/--10--10----|3x(after goto main2) 
|--88888--8\-3-| |-x-x-x---x-x-x---x-x-x---------------|
|--88888--8\-3-| |-6-6-6---6-6-6---6-6-6---------------|
|--66666--6\-1-| |-------------------------------------|
   ^Mute^                                 ^slide up

Main2

|----------------------------|**NOTE: It's your preference to mute the
|----------------------------| D string... play it loud if u want,
|-8-8-8---8-8-8---8-8-8-8-\--| either way it still sounds good.**
|-x-x-x---x-x-x---x-x-x-x-\--|
|-6-6-6---6-6-6---6-6-6-6-\--|
|----------------------------|

                          ^slide down but not too far then go into verse

Verse1
|-----------------------------| 
|-----------------------------|
|---------------5------8------|x1 Then Play Verse2
|-8------3------5-(x8)-8-(x8)-|
|-8-(x8)-3-(x8)-3------6------|
|-6------1--------------------|
   ^Mute This Entire Piece^

Verse2
|---------------------------------------------------------------------| 
|-------------------------**---***----**---***------------------------|
|-**---***----**---***--/555-5-555-5/888-8-888-8\---------------------|
|-88-8-888-8\333-3-333-3/555-5-555-5/888-8-888-8\3---3---3----3-3-----|
|-88-8-888-8\333-3-333-3/333-3-333-3/666-6-666-6\3---3---3----3-3-----|
|-66-6-666-6\111-1-111-1-------------------------1---1---1----1-1-----|
 (This riff is a mix of mutes and non mutes... all the mutes have a *)

Chorus

|-------------------------------------------------|
|-11-11-------11-11-------10-10-------10-10-------|
|-------10-10-------10-10-------10-10-------10-10-|x4 (right back to Main1)
|-------------------------------------------------|
|-------------------------------------------------|
|-------------------------------------------------|
(you can play chords during this... but this is in the back and it sounds much better.

That is, if you want to go above playing just power chords. Else you can just play chords
by ear because i dont feel like tabbing them now... gotta work.)

I left out everything except the solo and im sorry... ill post it later. And again, all
above is 100% right. Email Again is *.

TOP cifras de Sugarcult

  1. Memory
  2. Memory Solo
  3. I Changed My Name
  4. She's The Blade
  5. BackTo California
  6. Bouncing Off The Walls
  7. Champagne
  8. Riot
  9. Champange
  10. Counting Stars Intro

Pela Web