Cifras Web
Sum 41

Open Your Eyes

Sum 41

9 acessos

Afinação: Drop D

INTRO (COM EFEITO)

E|---------------------------|
B|---------------------------|
G|10-10-10-10-10-10-10-10-10-|
D|-x--x--x--x--x--x--x--x--x-|
A|-8--8--8--8--8--8--8--8--8-|
D|---------------------------|


PRE-VERSO

E|--------------------------------|
B|--------------------------------|
G|-------6-6----------------------|
D|-3-3---6-6---6-6----1-1-1-1-1-1-|
A|-3-3---4-4---6-6----1-1-1-1-1-1-|
D|-3-3---------6-6----1-1-1-1-1-1-|


VERSO (GUITARRA 1)

E|--------------------------------------------------------------------|
B|--------------------------------------------------------------------|
G|------------------6-6-6-6-6-6-6-6-----------------------------------|
D|-3-3-3-3-3-3-3-3--6-6-6-6-6-6-6-6--6-6-6-6-6-6-6-6--1-1-1-1-1-1-1-1-|
A|-3-3-3-3-3-3-3-3--4-4-4-4-4-4-4-4--6-6-6-6-6-6-6-6--1-1-1-1-1-1-1-1-|
D|-3-3-3-3-3-3-3-3-------------------6-6-6-6-6-6-6-6--1-1-1-1-1-1-1-1-|

PM ...............  ................ ...............  ...............

VERSO (GUITARRA 2)

E|--------------------------------------------|
B|-----1-------1-2-1----------1---------------|
G|---1-------1-------1----------1---------0--3|
D|-3-------3-----------3----3-----1--1-1------|
A|--------------------------------------------|
D|--------------------------------------------|


VERSE - CONTINUAÇÃO (GUITARRA 2, COM EFEITO)

E|------------------------------------------------------------|
B|------------------------------------------------------------|
G|-10-10-10-10-10-10-10-10-10-10-10-10-10-10--8-8-8-8-8-8-8-8-|
D|-10-10-10-10-10-10-10-10-10-10-10-10-10-10--8-8-8-8-8-8-8-8-|
A|------------------------------------------------------------|
D|------------------------------------------------------------|


CHORUS

E|--------------------------------------------------------------------|
B|--------------------------------------------------------------------|
G|------------------6-6-6-6-6-6-6-6-----------------------------------|
D|-3-3-3-3-3-3-3-3--6-6-6-6-6-6-6-6--6-6-6-6-6-6-6-6--1-1-1-1-1-1-1-1-|
A|-3-3-3-3-3-3-3-3--4-4-4-4-4-4-4-4--6-6-6-6-6-6-6-6--1-1-1-1-1-1-1-1-|
D|-3-3-3-3-3-3-3-3-------------------6-6-6-6-6-6-6-6--1-1-1-1-1-1-1-1-|


BRIDGE:

E|------------|
B|------------|
G|-------6-6--|
D|-3-3~--6-6--| x4
A|-3-3~--4-4--|
D|-3-3~-------|


SOLO (Base = Chorus)
E|-----------------------------|
B|-----------------------------|
G|-----------15-17-18-17-18-20-| 
D|-15-17-18--------------------|
A|-----------------------------|
D|-----------------------------|

TOP cifras de Sum 41

  1. Walking Disaster
  2. Still Waiting
  3. Take A Look At Yourself
  4. Mr. Amsterdam
  5. Confusion And Frustration In Modern Times
  6. Intro Cd Chuck
  7. Heart Attack
  8. Blood in my eyes
  9. Hyper-Insomnia-Para-Condrioid
  10. King Of Contradiction

Pela Web