Cifras Web
Suzi Quatro

Glycerine Queen

Suzi Quatro

6 acessos

Intro:


-----------------------------------\
------------------------------------| Simples fazer acorde


------------------------------------| G5 e fica tocando o 
------------------------------------| dedo mindinho na casa
55-7-55-35--------------------------| 7 e 5.
33-5-33-33-------------------------/



Base e refrão

-------------------------------------\
--------------------------------------| Chegando na ultima batida 
--------------------------------------| fazer todo trajeto de traz 
5555555-8888888-8-9999-9--------------| pra frente.
5555555-8888888-8-9999-9--------------|
3333355-6666666-6-6666-6-------------/



TOP cifras de Suzi Quatro

  1. Stumblin'
  2. Make Me Smile (come Up See Me)
  3. If Cant Give Me Love
  4. 48 Crash
  5. Devil Gate Drive
  6. Glycerine Queen
  7. All Shook Up
  8. Can The Can
  9. Rolling Stone
  10. The Wild One

Pela Web