Cifras Web
Suzi Quatro

The Wild One

Suzi Quatro

5 acessos

INTRO

E|----------------------------------------------------------------------------|
B|----------------------------------------------------------------------------|
G|----------------------------------------------------------------------------|
D|---7-7-7-----------6-7-7-7-7-7-7-7-6-7-7-7-7-7-7-7--------------------------|
A|---7-7-7-----------6-7-7-7-7-7-7-7-6-7-7-7-7-7-7-7--------------------------|
E|---5-5-5-----------4-5-5-5-5-5-5-5-4-5-5-5-5-5-5-5--------------------------|
      (spoken) All my life....                          (3x)


VERSE 1

E|------------------------------------------------------------------------------|
B|------------------------------------------------------------------------------|
G|-------------------------7-7-7-7-7-7-7-7-6-7-7-7-7-7-7-7----------------------|
D|---7---------------------7-7-7-7-7-7-7-7-6-7-7-7-7-7-7-7----------------------|
A|---7---------------------5-5-5-5-5-5-5-5-4-5-5-5-5-5-5-5----------------------|
E|---5--(hold chord)------------------------------------------------------------|

        I'm a red hot fox.... wild one,

E|----------------------------------------------------------------------------|
B|----------------------------------------------------------------------------|
G|----------------------------------------------------------------------------|
D|----------7-7-7-7-7-7-7-7-6-7-7-7-7-7-7-7-----------------------------------|
A|----------7-7-7-7-7-7-7-7-6-7-7-7-7-7-7-7-----------------------------------|
E|----------5-5-5-5-5-5-5-5-4-5-5-5-5-5-5-5-----------------------------------|

    Yes, I'm the wild one.

VERSE 2

E|----------------------------------------------------------------------------|
B|----------------------------------------------------------------------------|
G|----------------------------------------------------------------------------|
D|-----6-7-7-7-7-7-7-7-6-7-7-7-7-7-7-7-----7-7-7-7-7-7-7-7-6-7-7-7-7-7-7-7----|
A|-----6-7-7-7-7-7-7-7-6-7-7-7-7-7-7-7-----7-7-7-7-7-7-7-7-6-7-7-7-7-7-7-7----|
E|-----4-5-5-5-5-5-5-5-4-5-5-5-5-5-5-5-----5-5-5-5-5-5-5-5-4-5-5-5-5-5-5-5----|

      I'm a touched up freak..... (Repeat until) the wild one.


E|----------------------------------------------------------------------------|
B|----------------------------------------------------------------------------|
G|----------------------------------------------------------------------------|
D|----------7-7-7-7-7-7-7-7-6-7-7-7-7-7-7-7-----------------------------------|
A|----------7-7-7-7-7-7-7-7-6-7-7-7-7-7-7-7-----------------------------------|
E|----------5-5-5-5-5-5-5-5-4-5-5-5-5-5-5-5-----------------------------------|

    Yes, I'm the wild one.

CHORUS

E|----------------------------------------------------------------------------|
B|----------------------------------------------------------------------------|
G|-------9--9--9---9--9--9------9----9--9-------------------------------------|
D|-------9--9--9---9--9--9------9----9--9-------------------------------------|
A|-------7--7--7---7--7--7------7----7--7-------------------------------------|
E|----------------------------------------------------------------------------|

      Well it ain't no use...  More, more, I can't keep score.

VERSE 3 & 4 same as VERSE 2

CHORUS

E|----------------------------------------------------------------------------|
B|----------------------------------------------------------------------------|
G|-------9--9--9---9--9--9------9----9--9--------------11---------------------|
D|-------9--9--9---9--9--9------9----9--9--------------11---------------------|
A|-------7--7--7---7--7--7------7----7--7---------------9---------------------|
E|----------------------------------------------------------------------------|

      Well it ain't no use... More, more.................Yeah!

SOLO

E|----------7-7-----------7-----------7-7-9-9-11-11-11-11-11-11-11-11-9-7-----|
B|--7-7-9-9-----9-9-7-7-9---9-7-7-9-9-------------------------------------9---|
G|----------------------------------------------------------------------------|
D|----------------------------------------------------------------------------|
A|----------------------------------------------------------------------------|
E|----------------------------------------------------------------------------|



E|--12-12-11-9-7------------7-7-----------7-----------7-7-9-9-11-11-11-11-11--|
B|----------------9-7-7-9-9-----9-9-7-7-9---9-7-7-9-9-------------------------|
G|----------------------------------------------------------------------------|
D|----------------------------------------------------------------------------|
A|----------------------------------------------------------------------------|
E|----------------------------------------------------------------------------|



E|-11-11-11-9-7---12-12-12-12-12-12-12-11-9-7---------------------------------|
B|--------------9-------------------------------------------------------------|
G|----------------------------------------------------------------------------|
D|----------------------------------------------------------------------------|
A|----------------------------------------------------------------------------|
E|----------------------------------------------------------------------------|


CHORUS

TOP cifras de Suzi Quatro

  1. Stumblin'
  2. Make Me Smile (come Up See Me)
  3. If Cant Give Me Love
  4. 48 Crash
  5. Devil Gate Drive
  6. Glycerine Queen
  7. All Shook Up
  8. Can The Can
  9. Rolling Stone
  10. The Wild One

Pela Web