Cifras Web
Sword

Baraels Blade

Sword

4 acessos

Listen to song for timing, palm mutes, and vibratos.

Intro

|--------------------------------------------------------------------|
|--------------------------------------------------------------------|
|--------------------------------------------------------------------|
|--------------------------------------------------------------------|
|-7-5---5---------7-5---5------------7-5---5---------7-5---5---------|
|-----7---7-5-0-------7---7-5-3--0-------7---7-5-0-------7---7-5-3-8-|



|-----------------------------------------------------------------------------------|
|-------------------------------------------------------------------8-10-10-8-10-10-|
|-----------------------------------------------------------------------------------|
|-----------------------------------------------------------------------------------|
|-5-7-7-5-7-7-2--2--5-7-7-5-7-7-2--2--5-7-7-5-7-7-2--2--5-7-7-5-7-7-----------------|
|-------------0--0--------------0--0--------------0--0------------------------------|


Verse 1

|-------------------------------------------------------------------------|
|-------------------------------------------------------------------------|
|---------------------------------------------------------------------7-9-|
|-------------------------------------------------------------5-7-7-9-----|
|-5-7-7-5-7-7-------5-7-7-5-7-7-------5-7-7-5-7-7-------5-7-7-------------|
|-------------0--0--------------0--0--------------0--0--------------------|



|----------------------------------------------------------------------------------------|
|----------------------------------------------------------------------------------------|
|----------------------------------------------------------------------------------------|
|----------------------------------------------------------------------------------------|
|-5-7-7-5-7-7-------5-7-7-5-7-7-------5-7-7-5-7-7-------5-7-7-7-5----------2--2----------|
|-------------0--0--------------0--0--------------0--0------------7-5-3-0--0--0-let-ring-|


Chorus 1.1 - x3

|--------------------------------------------|
|--------------------------------------------|
|--------------------------------------------|
|--------------------------------------------|
|-10-9-9-10-9-9-10-9-9-10-9-9-2--2-2--2--2-2-|
|--8-7-7--8-7-7--8-7-7--8-7-7-0--0-0--0--0-0-|


Chorus 1.2 - x1

|------------------------------------------------------|
|------------------------------------------------------|
|------------------------------------------------------|
|-10-9-9-10-9-9-10-9-9-10-9-9-10-9-9-9-8-8-8-7-7-7-6---|
|--8-7-7--8-7-7--8-7-7--8-7-7--8-7-7-7-6-6-6-5-5-5-4-2-|
|----------------------------------------------------0-|


Intro - x1

Verse 2

|-------------------------------------------------------------------------------|
|-------------------------------------------------------------------------------|
|-------------------------------------------------------------------------------|
|-------------------------------------------------------------------5-7-7-7-5---|
|-5-7-7-5-7-7-------5-7-7-5-7-7-------5-7-7-5-7-7-------5-7-7-5-7-7-----------7-|
|-------------0--0--------------0--0--------------0--0--------------------------|



|-------------------------------------------------------------------------|
|-------------------------------------------------------------------------|
|---------------------------------------------------------------------7-9-|
|-------------------------------------------------------------5-7-7-9-----|
|-5-7-7-5-7-7-------5-7-7-5-7-7-------5-7-7-5-7-7-------5-7-7-------------|
|-------------0--0--------------0--0--------------0--0--------------------|



|------------------------------------------------------------------------------|
|----------------------------------------------------------------------8-10-10-|
|----------------------------------------------------------------7-9-9---------|
|-7-9-9-7-9-9------7-9-9-7-9-9------7-9-9-7-9-9------7-9-9-7-9-9---------------|
|-5-7-7-5-7-7-2--2-5-7-7-5-7-7-2--2-5-7-7-5-7-7-2--2-5-7-7-5-7-7---------------|
|-------------0--0-------------0--0-------------0--0---------------------------|



|----------------------------------------------------------------------------------------|
|----------------------------------------------------------------------------------------|
|----------------------------------------------------------------------------------------|
|----------------------------------------------------------------------------------------|
|-5-7-7-5-7-7-------5-7-7-5-7-7-------5-7-7-5-7-7-------5-7-7-7-5----------2--2----------|
|-------------0--0--------------0--0--------------0--0------------7-5-3-0--0--0-let-ring-|


Break 1.1 - x4

|--------------------------------------------------|
|--------------------------------------------------|
|--------------------------------------------------|
|--------------------------------------------------|
|-7777777530300----------------------------------5-|
|-------------66666665035300000000035300000000035--|


Break 1.2 - x1

|--------------------------------------------------------------------------|
|--------------------------------------------------------------------------|
|--------------------------------------------------------------------------|
|-9-9-----9-9-----9-9-----9-7-7-9-7-7--9-9-----7-7-------------------------|
|-7-7-----7-7-----7-7-----7-5-5-7-5-5--7-7-----5-5-----4-4-----4-3-3-3-1-1-|
|-----000-----000-----000------------------000-----000-6-6-000-6-5-5-5-3-3-|


Break 1.3 - x2
|-------------------------------|
|-------------------------------|
|-------------------------------|
|-------------------9-7-7-9-7-7-|
|-2---3-2---3-2---3-7-5-5-7-5-5-|
|-0---1-0---1-0---1-------------|

Chorus 1.1 - x3
Chorus 1.2 - x1

-END-

TOP cifras de Sword

  1. Dare To Spit
  2. Follow The Wheel
  3. Freya
  4. Iron Swan
  5. Winter Wolves
  6. Winters Wolves
  7. Winters Wolves Intro
  8. Baraels Blade
  9. Outta Control
  10. Celestial Crown

Pela Web